hardcore metal shit!! xD

Chords

01234567891011121314151617181920212223
E
B
G
D
A
E
B
0 1 2 3 4 5 6 7 8 9 10 11 12 13 14 15 16 17 18 19 20 21 22 23
(/) Slide Up  (\) Slide Down  (h) Hammer On  (p) Pull Off  (b) Bend (r) Release (v) Vibrato
E|-----------------------------------------------------------|-------------------------------------------|-
B|-----------------------------------------------------------|-------------------------------------------|-
G|-----------------------------------------------------------|-------------------------------------------|-
D|-------------5-------------7-------------5-----------------|-------------5-------------7-------------5-|-
A|-------------5-------------7-------------5-----------------|-------------5-------------7-------------5-|-
E|-0-0-0-0-0-0-5-0-0-0-0-0-0-7-0-0-0-0-0-0-5-2-2-2-2-4-4-4-4-|-0-0-0-0-0-0-5-0-0-0-0-0-0-7-0-0-0-0-0-0-5-|-



E|--------------------------|--
B|--------------------------|--
G|--------------------------|--
D|--------------------------|--
A|--------------------------|--
E|--2--2--2--2--4--4--4--4--|--
							http://www.guitartabcreator.com
Tab Notes

(/) Slide Up (\) Slide Down (h) Hammer On (p) Pull Off (b) Bend (r) Release (v) Vibrato

E|-----------------------------------------------------------|-------------------------------------------|-
B|-----------------------------------------------------------|-------------------------------------------|-
G|-----------------------------------------------------------|-------------------------------------------|-
D|-------------5-------------7-------------5-----------------|-------------5-------------7-------------5-|-
A|-------------5-------------7-------------5-----------------|-------------5-------------7-------------5-|-
E|-0-0-0-0-0-0-5-0-0-0-0-0-0-7-0-0-0-0-0-0-5-2-2-2-2-4-4-4-4-|-0-0-0-0-0-0-5-0-0-0-0-0-0-7-0-0-0-0-0-0-5-|-



E|--------------------------|--
B|--------------------------|--
G|--------------------------|--
D|--------------------------|--
A|--------------------------|--
E|--2--2--2--2--4--4--4--4--|--

[["2","2","2","2","4","4","4","4","|"],[".",".",".",".",".",".",".",".","|"],[".",".",".",".",".",".",".",".","|"],[".",".",".",".",".",".",".",".","|"],[".",".",".",".",".",".",".",".","|"],[".",".",".",".",".",".",".",".","|"]]

Member for

8 years 8 months
Submitted by EpICEivind on Sat, 2011-10-22 08:08