Sound will begin in 5 seconds

Haikus

01234567891011121314151617181920212223
E
B
G
D
A
E
B
0 1 2 3 4 5 6 7 8 9 10 11 12 13 14 15 16 17 18 19 20 21 22 23
Song Science #1: How Pros Use 6 Chords to Write Hit Songs
(/) Slide Up  (\) Slide Down  (h) Hammer On  (p) Pull Off  (b) Bend (r) Release (v) Vibrato

Capo Fret 2

Stave 1:

E|--14----0--12----0--14--16--14--16--14--0--12----0--
B|--12----0--14----0--12---------------------14----0--
G|--0-----0--0-----0--0----------------------0-----0--
D|--0-----0--0-----0--0----------------------0-----0--
A|----------------------------------------------------
E|----------------------------------------------------

Stave 2:

E|--14----14--14--14----12----12--12--12----14--16--14--16--14--0--12----0--
B|--12----12--12--12----14----14--14--14----12--12--12--12--12--0--14----0--
G|--0-----0---0---0-----0-----0---0---0-----0---0---0---0---0---0--0-----0--
D|--0-----0---0---0-----0-----0---0---0-----0---0---0---0---0---0--0-----0--
A|--------------------------------------------------------------------------
E|--------------------------------------------------------------------------

Stave 3:

E|--7--9--7--9--7--5-----5-------5--------5--------------5---------5-----9--
B|--5-----5-----5-----9-------------9--------9--------7-------7-------7--5--
G|--0-----0-----0----------------------0--------0-----0-------0----------0--
D|--0-----0-----0-----0-------0--------------------0--0-------0----------0--
A|--------------------------------------------------------------------------
E|--------------------------------------------------------------------------

Stave 4:

E|-----------------------5--5--5-------4--4--4-------------------------------------------------------
B|-------5----5--5-------0--0--5-------0--0--0---------3----3--3--3----0----0--0--0----0----0--0--0--
G|-------0----0--0-------0--0--0-------0--0--0---------0----0--0--0----0----0--0--0----0----0--0--0--
D|-------4----4--4-------0--0--0-------0--0--0---------4----4--4--4----4----4--4--4----4----4--4--4--
A|--5----5----5--5-------4--4--4-------4--4--4----5----5----5--5--5----5----5--5--5----5----5--5--5--
E|--------------------5--5--5--5----5--5--5--5-------------------------------------------------------

Stave 5:

E|--------0---------------------------0--------------------0----0----0--0--0----------------0----0--0--0--
B|-----5-------5--3----3--0--0-----5---------3----3--0--0--0----0----0--0--0-------0--0-----0----0--0--0--
G|-----0----------0----0--0--0-----0---------0----0--0--0--0----0----0--0--0-------0--0-----0----0--0--0--
D|-----4----------4----4--4--4-----0---------0----0--0--0--4----4----4--4--4----4--4--4--4--4----4--4--4--
A|--5--5----------5----5--5--5-----4---------4----4--4--4--5----5----5--5--5----5--5--5--5--5----5--5--5--
E|------------------------------5--5---------5----5--5--5-------------------------------------------------

Stave 6:

E|----0------------0--
B|----0------------0--
G|----0------------0--
D|----4------------0--
A|----5------------4--
E|-----------------5--

http://www.guitartabcreator.com
Guitar Tab Creator is intended to store guitar tab created through the tool. It currently does not support in-line text editing. Any text you place in here will be lost. If you need to comment on your tab, please use the "Tab Notes" section located below.