Sound will begin in 5 seconds

Untitled 1

01234567891011121314151617181920212223
E
B
G
D
A
E
B
0 1 2 3 4 5 6 7 8 9 10 11 12 13 14 15 16 17 18 19 20 21 22 23
Song Science #1: How Pros Use 6 Chords to Write Hit Songs
(/) Slide Up  (\) Slide Down  (h) Hammer On  (p) Pull Off  (b) Bend (r) Release (v) Vibrato

Stave 1:

E|--9---7--7--5--
B|--10--7--7--5--
G|--11--8--7--6--
D|--11--9--7--7--
A|--9---9--5--7--
E|------7-----5--

Stave 2:

E|--9---9--7--7--9--5--
B|--10--9--7--7--9--5--
G|--11--9--8--7--9--6--
D|--11--9--9--7--9--7--
A|--9---7--9--5--7--7--
E|---------7--------5--

Stave 3:

E|----------12---------9--------9--------5--
B|------10---------10--------7--------5-----
G|--11----------8---------7--------6--------
D|------------------------------------------
A|------------------------------------------
E|------------------------------------------

Stave 4:

E|--12/16--12---------------------------------------------
B|-------------14--12--14--14--13--12------12-------------
G|-------------------------------------14------14--11-----
D|--------------------------------------------------------
A|--------------------------------------------------------
E|--------------------------------------------------------

Stave 5:

E|--12/16--12----------------------14--16--14----------
B|-------------14--12--14--16--17--------------17--14--
G|-----------------------------------------------------
D|-----------------------------------------------------
A|-----------------------------------------------------
E|-----------------------------------------------------

Stave 6:

E|--14--17--16------14------------------------------------------
B|--------------17------17--16--17--16--14--16--14------14------
G|--------------------------------------------------16------16--
D|--------------------------------------------------------------
A|--------------------------------------------------------------
E|--------------------------------------------------------------

Stave 7:

E|--------------------------------
B|------10-----------------10-----
G|--11------11---------11---------
D|--------------9--12----------7--
A|--------------------------------
E|--------------------------------

http://www.guitartabcreator.com
Guitar Tab Creator is intended to store guitar tab created through the tool. It currently does not support in-line text editing. Any text you place in here will be lost. If you need to comment on your tab, please use the "Tab Notes" section located below.