Sound will begin in 5 seconds

Venusian 2

01234567891011121314151617181920212223
E
B
G
D
A
E
B
0 1 2 3 4 5 6 7 8 9 10 11 12 13 14 15 16 17 18 19 20 21 22 23
(/) Slide Up  (\) Slide Down  (h) Hammer On  (p) Pull Off  (b) Bend (r) Release (v) Vibrato

Riff 1: (x4)

E|----------------------------------------------------------------------------------------
B|----------------------------------------------------------------------------------------
G|----------------------------------------------------------------------------------------
D|-------------------------------------------------------------------------8--7--8--7--5--
A|-----------------------------------4b5--------------------------------------------------
E|--0--0--0--0--0--0--0--0--0--0--3-------3--0--0--0--0--0--0--0--0--0--0-----------------

Riff 2: (x3)

E|-----------------------------------------------
B|-----------------------------------------------
G|-----------------------------------------------
D|-----------------------------------------------
A|-----------------------------------------------
E|--5--5--5--5--5--5--5--5--5--5--6--5--6--5--3--

Tag 1: (Repeat Riff 2 and Tag 1 x2)

E|--------------------
B|--------------------
G|--------------------
D|--------------4-----
A|-----------------6--
E|--5--3--5--6--------

http://www.guitartabcreator.com
Guitar Tab Creator is intended to store guitar tab created through the tool. It currently does not support in-line text editing. Any text you place in here will be lost. If you need to comment on your tab, please use the "Tab Notes" section located below.