Sound will begin in 5 seconds

Hotel California Solo pt.1

01234567891011121314151617181920212223
E
B
G
D
A
E
B
0 1 2 3 4 5 6 7 8 9 10 11 12 13 14 15 16 17 18 19 20 21 22 23
Song Science #1: How Pros Use 6 Chords to Write Hit Songs
(/) Slide Up  (\) Slide Down  (h) Hammer On  (p) Pull Off  (b) Bend (r) Release (v) Vibrato

Stave 1:

E|--10--7-----7------------------7------------------|-------------------------------|------------------------------------|--
B|---------7-----10--7--------7-----10--7-----------|------------7--11--7-----------|------------------------------------|--
G|----------------------9b11---------------9--7-----|----------------------9--7--6--|--7b9--9--9--9--9--9--9--9--9r7--4--|--
D|-----------------------------------------------9--|-----8--11---------------------|------------------------------------|--
A|--------------------------------------------------|--9----------------------------|------------------------------------|--
E|--------------------------------------------------|-------------------------------|------------------------------------|--

Stave 2:

E|-------------------------|-----3--5--3--|-----------5--------------|-----------------------------|--------------------------------|--
B|-------5--9--5--------9--|--------------|-----7--------7--5--3-----|-----------5--8--5-----------|--------------------------------|--
G|--7b9-----------7--------|--------------|--------------------------|-----------------------------|--------------------------------|--
D|-------------------------|--5-----------|--------------------------|-----5--9-----------9--5-----|-----8-----8-----8-----8--8/20--|--
A|-------------------7-----|--------------|--5-----5--------------5--|--7-----------------------7--|--9-----9-----9-----9-----------|--
E|-------------------------|--------------|--------------------------|-----------------------------|--------------------------------|--

Stave 3:

E|--
B|--
G|--
D|--
A|--
E|--

Stave 4:

E|--10--7-----10--7-----10--7-----10--7-----10--10/12--|--12--10------10-----------------|--9--5-----9--5-----9--5-----9--5-----9--5-----|--
B|---------7---------7---------7---------7-------------|----------12------12--10---------|--------5--------5--------5--------5--------5--|--
G|-----------------------------------------------------|--------------------------11--9--|-----------------------------------------------|--
D|-----------------------------------------------------|---------------------------------|-----------------------------------------------|--
A|-----------------------------------------------------|---------------------------------|-----------------------------------------------|--
E|-----------------------------------------------------|---------------------------------|-----------------------------------------------|--

Stave 5:

E|---------------------------|--3-----3-----------|--------------------------|-----------------------|-------------------------
B|--5/7--7--5--5--7p5--------|--------------------|--------------3--7--3--3--|--8--5-----5-----------|------------7--11--7--7--
G|---------------------7-----|-----7-----7--4-----|--------------------------|-----------------------|-------------------------
D|------------------------7--|-----------------5--|--------4--7--------------|--------9-----9--5-----|-----8--11---------------
A|---------------------------|--------------------|-----5--------------------|--------------------7--|--9----------------------
E|---------------------------|--------------------|--------------------------|-----------------------|-------------------------

Stave 6:

E|--7--3-----7--3-----7--3-----7--3-----7--3-----7--5-----5-----------------|--------------|------------
B|--------3--------3--------3--------3--------3--------7-----7--5--5--3-----|-----------5--|------------
G|--------------------------------------------------------------------------|--------------|------------
D|--------------------------------------------------------------------------|-----5--9-----|-----8--11--
A|-----------------------------------------------------------------------5--|--7-----------|--9---------
E|--------------------------------------------------------------------------|--------------|------------

http://www.guitartabcreator.com
Guitar Tab Creator is intended to store guitar tab created through the tool. It currently does not support in-line text editing. Any text you place in here will be lost. If you need to comment on your tab, please use the "Tab Notes" section located below.