Shadow Of The Day

Chords

01234567891011121314151617181920212223
E
B
G
D
A
E
B
0 1 2 3 4 5 6 7 8 9 10 11 12 13 14 15 16 17 18 19 20 21 22 23
(/) Slide Up  (\) Slide Down  (h) Hammer On  (p) Pull Off  (b) Bend (r) Release (v) Vibrato

Intro

E|-------------------------------------------------------------------------------------
B|-----8------11-----8-----7-----8-----------------------------------------------------
G|--8-----10------8-----8-----8--------------------------------------------------------
D|-------------------------------------------------------------------------------------
A|-------------------------------------------------------------------------------------
E|-------------------------------------------------------------------------------------

Verse

E|----------------------------------------------------------------------------------------------
B|------11-----8-----7-----8------11-----8-----7-----8------11-----8-----7-----8------11-----8--
G|--10------8-----8-----8-----10------8-----8-----8-----10------8-----8-----8-----10------8-----
D|----------------------------------------------------------------------------------------------
A|----------------------------------------------------------------------------------------------
E|----------------------------------------------------------------------------------------------

 Bridge

E|--------------8--------10--------8--10--------8--------10--------8--10--
B|-----7-----8--------8---------8------------8--------8---------8---------
G|--8-----7--------7---------7------------7--------7---------7------------
D|------------------------------------------------------------------------
A|------------------------------------------------------------------------
E|------------------------------------------------------------------------

Chorus

E|--8--------8--------8--------10--------9--------8--------
B|-----8--------8--------8---------8--------8--------8-----
G|--------9--------9--------9---------7--------7--------7--
D|---------------------------------------------------------
A|---------------------------------------------------------
E|---------------------------------------------------------

Stave 5:

E|--8--------8--------
B|-----8--------8-----
G|--------9--------9--
D|--------------------
A|--------------------
E|--------------------

							http://www.guitartabcreator.com
Instruments
{"title":"Shadow Of The Day","strings":[[[".",".",".",".",".",".",".",".",".",".",".",".",".",".",".",".",".",".",".",".",".",".",".",".",".",".","."],[".",8,".",11,".",8,".",7,".",8,".",".",".",".",".",".",".",".",".",".",".",".",".",".",".",".","."],[8,".",10,".",8,".",8,".",8,".",".",".",".",".",".",".",".",".",".",".",".",".",".",".",".",".","."],[".",".",".",".",".",".",".",".",".",".",".",".",".",".",".",".",".",".",".",".",".",".",".",".",".",".","."],[".",".",".",".",".",".",".",".",".",".",".",".",".",".",".",".",".",".",".",".",".",".",".",".",".",".","."],[".",".",".",".",".",".",".",".",".",".",".",".",".",".",".",".",".",".",".",".",".",".",".",".",".",".","."]],[[".",".",".",".",".",".",".",".",".",".",".",".",".",".",".",".",".",".",".",".",".",".",".",".",".",".",".","."],[".",11,".",8,".",7,".",8,".",11,".",8,".",7,".",8,".",11,".",8,".",7,".",8,".",11,".",8],[10,".",8,".",8,".",8,".",10,".",8,".",8,".",8,".",10,".",8,".",8,".",8,".",10,".",8,"."],[".",".",".",".",".",".",".",".",".",".",".",".",".",".",".",".",".",".",".",".",".",".",".",".",".",".",".","."],[".",".",".",".",".",".",".",".",".",".",".",".",".",".",".",".",".",".",".",".",".",".",".",".",".",".",".","."],[".",".",".",".",".",".",".",".",".",".",".",".",".",".",".",".",".",".",".",".",".",".",".",".",".",".",".","."]],[[".",".",".",".",8,".",".",10,".",".",8,10,".",".",8,".",".",10,".",".",8,10],[".",7,".",8,".",".",8,".",".",8,".",".",".",8,".",".",8,".",".",8,".","."],[8,".",7,".",".",7,".",".",7,".",".",".",7,".",".",7,".",".",7,".",".","."],[".",".",".",".",".",".",".",".",".",".",".",".",".",".",".",".",".",".",".",".",".","."],[".",".",".",".",".",".",".",".",".",".",".",".",".",".",".",".",".",".",".",".",".","."],[".",".",".",".",".",".",".",".",".",".",".",".",".",".",".",".",".",".",".",".",".","."]],[[8,".",".",8,".",".",8,".",".",10,".",".",9,".",".",8,".","."],[".",8,".",".",8,".",".",8,".",".",8,".",".",8,".",".",8,"."],[".",".",9,".",".",9,".",".",9,".",".",7,".",".",7,".",".",7],[".",".",".",".",".",".",".",".",".",".",".",".",".",".",".",".",".","."],[".",".",".",".",".",".",".",".",".",".",".",".",".",".",".",".",".","."],[".",".",".",".",".",".",".",".",".",".",".",".",".",".",".",".",".","."]],[[8,".",".",8,".","."],[".",8,".",".",8,"."],[".",".",9,".",".",9],[".",".",".",".",".","."],[".",".",".",".",".","."],[".",".",".",".",".","."]]],"numberofstrings":6,"notes":["E","B","G","D","A","E","B"],"capo":0,"stringnotes":["E4","B3","G3","D3","A2","E2"],"comments":["Intro","Verse"," Bridge","Chorus","Stave 5:"],"timing":[["W","W","W","W","W","W","W","W","W","W","W","W"],["W","W","W","W","W","W","W","W","W","W","W","W","W","W","W","W","W","W","W","W","W","W","W","W","W","W","W","W"],["W","W","W","W","W","W","W","W","W","W","W","W","W","W","W","W","W","W","W","W","W","W"],["W","W","W","W","W","W","W","W","W","W","W","W","W","W","W","W","W","W"],["W","W","W","W","W","W"]],"timingvisible":false,"tabcounter":6,"stave":4,"totalstaves":5,"instrument":"6guitar","selectedtuning":"6_standard","version":"13"}

Member for

3 years 6 months
Submitted by Duong Allen on Fri, 2017-05-19 08:43