KARZ

Chords
01234567891011121314151617181920212223
E
B
G
D
A
E
B
0 1 2 3 4 5 6 7 8 9 10 11 12 13 14 15 16 17 18 19 20 21 22 23
(/) Slide Up  (\) Slide Down  (h) Hammer On  (p) Pull Off  (b) Bend (r) Release (v) Vibrato


E|---------------------------------------------|----------------------------------10--7--------------
B|--7--5--7--8----7--5--7--8----7--5--7--8--5--|--5-----5--7--4--4--5--7--7--5-----------8--7--------
G|---------------------------------------------|-----6-----------------------------------------9-----
D|---------------------------------------------|-----------------------------------------------------
A|---------------------------------------------|-----------------------------------------------------
E|---------------------------------------------|-----------------------------------------------------



E|-------------------10--12--10--------10--12--14--10--12------10--------------------------------
B|--8--8--8--10--12--------------12------------------------12------10--12--12--12--11--10--8-----
G|-----------------------------------------------------------------------------------------------
D|-----------------------------------------------------------------------------------------------
A|-----------------------------------------------------------------------------------------------
E|-----------------------------------------------------------------------------------------------


[["."],["."],["."],["."],["."],["."]]

Member for

8 years 7 months
Submitted by dudacouto on Sat, 2011-10-15 16:16