Sound will begin in 5 seconds

near miss stories

01234567891011121314151617181920212223
E
B
G
D
A
E
B
0 1 2 3 4 5 6 7 8 9 10 11 12 13 14 15 16 17 18 19 20 21 22 23
Song Science #1: How Pros Use 6 Chords to Write Hit Songs
(/) Slide Up  (\) Slide Down  (h) Hammer On  (p) Pull Off  (b) Bend (r) Release (v) Vibrato

Stave 1:

E|--------------------------------8-------------------------------------------
B|-------------8-------------------------------------7------------------7-----
G|--7h8--8--8----------7h8--8--8----------7h8--8--8----------7h8--8--8--------
D|----------------6------------------6------------------9------------------9--
A|----------------------------------------------------------------------------
E|----------------------------------------------------------------------------

Stave 2:

E|-----------8----------7----9/11-------------------------9/11--
B|--9--------9----------9----------------11------11--9----------
G|--8--------8----------8--------------------11------8----------
D|--------------------------------------------------------------
A|--------------------------------------------------------------
E|--------------------------------------------------------------

Stave 3:

E|-------------------------------------------------------------------------------------
B|--13------11--9----13h14b13h14--13h14b13h14--12--11--------9----9h11b9h11b9h11b9h11--
G|------10-----------------------------------------------------------------------------
D|-------------------------------------------------------------------------------------
A|-----------------------------------------------------11------------------------------
E|-------------------------------------------------------------------------------------

Stave 4:

E|-----------------------------------------------9/11----------------
B|-------------------------------------------------------------------
G|--8/11h13----12------12------12------12----------------11--13--11--
D|-----------------13------13------13------13------------13----------
A|-------------------------------------------------------------------
E|-------------------------------------------------------------------

Stave 5:

E|---------------------------------------------------------------
B|----------13------11--13----------11------------9--------------
G|--11--13------11--------------13------------11-----11----------
D|--------------------------13------------11-------------11--10--
A|---------------------------------------------------------------
E|---------------------------------------------------------------

http://www.guitartabcreator.com
Guitar Tab Creator is intended to store guitar tab created through the tool. It currently does not support in-line text editing. Any text you place in here will be lost. If you need to comment on your tab, please use the "Tab Notes" section located below.