Sound will begin in 5 seconds

Ann the word np

01234567891011121314151617181920212223
E
B
G
D
A
E
B
0 1 2 3 4 5 6 7 8 9 10 11 12 13 14 15 16 17 18 19 20 21 22 23
Song Science #1: How Pros Use 6 Chords to Write Hit Songs
(/) Slide Up  (\) Slide Down  (h) Hammer On  (p) Pull Off  (b) Bend (r) Release (v) Vibrato

Stave 1:

E|--------------------------------------------------------------------------------------------------------
B|------------13--15----------13------------13--15----------13--------------------------------------------
G|----14--14----------14--14--------14--14----------14--14--------14--14--12--------14--14--12------------
D|----------------------------------------------------------------------------14----------------14----13--
A|--------------------------------------------------------------------------------------------------------
E|--------------------------------------------------------------------------------------------------------

Stave 2:

E|--------------------------------------------
B|-----------------------------------6--7--8--
G|-----------0--2--3--5--7--8--7--8-----------
D|--3--1--3-----------------------------------
A|--------------------------------------------
E|--------------------------------------------

Stave 3:

E|-------------------------------
B|-------------------------------
G|--12--9--10--------------------
D|-------------10--10--9--8--10--
A|-------------------------------
E|-------------------------------

Stave 4:

E|---------------------------------------------------------------------
B|-----8-------8--8--10------10----8--10-------------------------------
G|----------------------------------------10------10----7--7--5-----5--
D|--5-----5--------------10--------------------------------------5-----
A|--------------------------------------------10-----------------------
E|---------------------------------------------------------------------

http://www.guitartabcreator.com
Guitar Tab Creator is intended to store guitar tab created through the tool. It currently does not support in-line text editing. Any text you place in here will be lost. If you need to comment on your tab, please use the "Tab Notes" section located below.