Sound will begin in 5 seconds

XIII. Son of YouTube Főút

Chords
01234567891011121314151617181920212223
E
B
G
D
A
E
B
0 1 2 3 4 5 6 7 8 9 10 11 12 13 14 15 16 17 18 19 20 21 22 23
Song Science #1: How Pros Use 6 Chords to Write Hit Songs
(/) Slide Up  (\) Slide Down  (h) Hammer On  (p) Pull Off  (b) Bend (r) Release (v) Vibrato

Stave 1:

E|------------------------------------------------------------------
B|------------------------------------------------3-----------------
G|------------------------------------------------------------------
D|-----5--------5--------5-----7h9p7--5-----4-----------2-----5-----
A|--7-----7--7-----7--7-----7------------5-----5-----3-----3--------
E|------------------------------------------------------------------

Stave 2:

E|--------
B|--------
G|--------
D|--2--4--
A|--3--5--
E|--------

Stave 3:

E|-----0--------------0---------------0--------------------------------
B|-----0--------------0---------------0--------------------------------
G|-----0--------------0---------------0--------------------------------
D|--2-----5--4--4--2-----9---7--7--2-----5--4--4--2--2--2--10--9---9---
A|--2-----7--5--5--2-----10--9--9--2-----7--5--5--3--3--3--12--10--10--
E|--0--------------0---------------0-----------------------------------

Stave 4:

E|-----0-----------0-----------2--------------3-----
B|--------0-----------0-----------0--------0-----0--
G|-----------0-----------0-----------0--------------
D|--------------------------------------------------
A|--------------------------3-----------------------
E|--0-----------0-----------------------3-----------

Stave 5:

E|-----0-----------0--------------2--------3--------
B|--------0-----------0--------0-----0--------0-----
G|-----------0-----------0-----------------------0--
D|--------------------------------------------------
A|--------------------------3-----------------------
E|--0-----------0-----------------------3-----------

Stave 6:

E|-----0-----------0-----------2--------3/5--5/7--7h8--7\5--
B|--------0-----------0-----------0-------------------------
G|-----------0-----------0-----------0----------------------
D|----------------------------------------------------------
A|--------------------------3-------------------------------
E|--0-----------0-------------------------------------------

Stave 7:

E|--------0--0-------------------------------
B|--------5--7-------------------------------
G|-------------------------------------------
D|--------------9--12--5--7--9--12--5-----7--
A|--2--2--------7--10--3--5--7--10--3--5--5--
E|--0--0-------------------------------3-----

http://www.guitartabcreator.com
Guitar Tab Creator is intended to store guitar tab created through the tool. It currently does not support in-line text editing. Any text you place in here will be lost. If you need to comment on your tab, please use the "Tab Notes" section located below.