Sound will begin in 5 seconds

Layla Solo 2

01234567891011121314151617181920212223
E
B
G
D
A
E
B
0 1 2 3 4 5 6 7 8 9 10 11 12 13 14 15 16 17 18 19 20 21 22 23
Song Science #1: How Pros Use 6 Chords to Write Hit Songs
(/) Slide Up  (\) Slide Down  (h) Hammer On  (p) Pull Off  (b) Bend (r) Release (v) Vibrato

Stave 1:

E|--5--5-----5--5--5-------5----------------------------------
B|--6--6-----6--6--6-------6----------------------------------
G|-------7-----------7-------7--5----------------------------
D|---------------------------------7--6--5\3--5--3-----3-----
A|--------------------------------------------------5-----5--
E|-----------------------------------------------------------

Stave 2:

E|--7--8---8---8--------8---8------8---8------8---8---
B|--9--10--10--10--9----10--10--9--10--10--9--10--10--
G|---------------------------------------------------
D|---------------------------------------------------
A|---------------------------------------------------
E|---------------------------------------------------

Stave 3:

E|-----8---8------8---8---------8--10-------------
B|--9--10--10--9--10--10--10----------------------
G|-------------------------------------12b14--12--
D|------------------------------------------------
A|------------------------------------------------
E|------------------------------------------------

Stave 4:

E|--------------------------10--12--10h12p10------10------
B|------------------10--13--------------------13------13--
G|--10------10--12----------------------------------------
D|------12------------------------------------------------
A|--------------------------------------------------------
E|--------------------------------------------------------

Stave 5:

E|------------------------------------------------------------
B|--10------10--10--10--11--10--------------------------------
G|------12----------------------12----10--9--7h9--7--5-----7--
D|------------------------------------------------------7-----
A|------------------------------------------------------------
E|------------------------------------------------------------

Stave 6:

E|------------------------------------------
B|--5--6--5h6p5-----------------------------
G|---------------7--5-----------------------
D|---------------------7--6--5--3--5--3-----
A|---------------------------------------5--
E|------------------------------------------

Stave 7:

E|--13--10------10--12--10/12--10------------------
B|----------13---------------------13--10------10--
G|-----------------------------------------13------
D|-------------------------------------------------
A|-------------------------------------------------
E|-------------------------------------------------

Stave 8:

E|--10------13--10------15p13--15--15--13----------
B|------13----------13-------------------------15--
G|-----------------------------------------14------
D|-------------------------------------------------
A|-------------------------------------------------
E|-------------------------------------------------

Stave 9:

E|--12--13/15--13--15----12--13--
B|-------------------------------
G|-------------------------------
D|-------------------------------
A|-------------------------------
E|-------------------------------

Stave 10:

E|--10--------------------------------------
B|------13--10------13------10--------------
G|--------------12------12------12--10------
D|--------------------------------------12--
A|------------------------------------------
E|------------------------------------------

Stave 11:

E|--10------------------------------------------
B|--10-----10------10---------------------------
G|--10--9--9---10--9---9h10------5--------------
D|--_-----------------------12-----7--6--5--3--
A|--_------------------------------------------
E|--_------------------------------------------

http://www.guitartabcreator.com
Guitar Tab Creator is intended to store guitar tab created through the tool. It currently does not support in-line text editing. Any text you place in here will be lost. If you need to comment on your tab, please use the "Tab Notes" section located below.