Sound will begin in 5 seconds

Hey Joe Solo

01234567891011121314151617181920212223
E
B
G
D
A
E
B
0 1 2 3 4 5 6 7 8 9 10 11 12 13 14 15 16 17 18 19 20 21 22 23
Song Science #1: How Pros Use 6 Chords to Write Hit Songs
(/) Slide Up  (\) Slide Down  (h) Hammer On  (p) Pull Off  (b) Bend (r) Release (v) Vibrato

Stave 1:

E|---------12--12-------------------------------
B|--15b17------15--12---------------------------
G|-----------------12--14b16----14--12------12--
D|--------------------------------------14------
A|----------------------------------------------
E|----------------------------------------------

Stave 2:

E|---------12--12--12-------------------------------------------
B|--15b17------15--12---------12--------------------------------
G|---------------------14b16------14--12h14p12------12------12--
D|----------------------------------------------14------14------
A|--------------------------------------------------------------
E|--------------------------------------------------------------

Stave 3:

E|-------------7-----------------------
B|-------------8-------15b16----15b17--
G|-------7--9-----9--------------------
D|--7/9--------------------------------
A|-------------------------------------
E|-------------------------------------

Stave 4:

E|--12--12--12------12--------------------------
B|--12--15--12--12--12--15------12--------------
G|--_----------14----------14----------14--12--
D|--_------------------------------14----------
A|--_------------------------------------------
E|--_------------------------------------------

Stave 5:

E|-------------12--15b17--15--12----------12-------------------------------------
B|---------12-------------------------15------15---------------------------------
G|--14b16-------------------------14--------------14--12----------9--11--12------
D|--------------------------------------------------------14--11-------------14--
A|-------------------------------------------------------------------------------
E|-------------------------------------------------------------------------------

http://www.guitartabcreator.com
Guitar Tab Creator is intended to store guitar tab created through the tool. It currently does not support in-line text editing. Any text you place in here will be lost. If you need to comment on your tab, please use the "Tab Notes" section located below.