Sound will begin in 5 seconds

what child stave 3

01234567891011121314151617181920212223
E
B
G
D
A
E
B
0 1 2 3 4 5 6 7 8 9 10 11 12 13 14 15 16 17 18 19 20 21 22 23
Song Science #1: How Pros Use 6 Chords to Write Hit Songs
(/) Slide Up  (\) Slide Down  (h) Hammer On  (p) Pull Off  (b) Bend (r) Release (v) Vibrato

Stave 1:

E|--1--1--3--------1--0-----|--1--3--5--3--1--0--------------------|--0-----------------0--5--
B|--------1-----------------|--------------------3--------2--3-----|-----------0--2--3--1--5--
G|--------------2--------0--|--------------------------3-----------|--------2--------4--------
D|-----------1--------------|--0--2--3--2--0--------3-----------3--|-----2-----------2--------
A|--3-----0-----------------|-----------------3--1-----------------|--0-----------------0-----
E|--------------------------|--------------------------------------|--------------------------

Stave 2:

E|--12--10--9--5--|--1--------0--1--3--5--------6--5-----|--3--------8--3--0--------------------
B|----------------|--------3-----------------3-----------|--------1-----------1--------3--6-----
G|----------------|-----2-----------------2--------------|-----0--------------------2--4--5--0--
D|----------------|--0-----------0--2--3--------------3--|--2--------------------2--------------
A|----------------|--------------------------------------|--------------3-----0-----------------
E|----------------|--------------------------------------|--------------------------------------

Stave 3:

E|--1--------0--------------------------|--------0--5--10--5-----|--------1--------5--|--------3--
B|--1-----------3-----2--------0--1-----|--3------------------3--|--------3--------3--|--------1--
G|-------3-----------------2--------0--|-----2------------------|-----1--------2-----|-----0-----
D|----3-----------3-----2--------------|--0---------------------|--0--------3--------|--2--------
A|--1-----------------0-----------------|------------------------|--------------------|-----------
E|-------------------------------------|------------------------|--------------------|-----------

Stave 4:

E|--------3--|--------1-----------|--------------0--5--9--5--0-----------|-----------1--3-----5-----1--6--
B|--------1--|--------3--------3--|--------0--2-----------------2--0-----|--------3--------1--------------
G|-----------|-----2-----------3--|-----------------------------------2--|-----2-----------------5--------
D|-----2-----|--0-----------3-----|-----2--------------------------------|--0-----------------------------
A|--0--------|-----------1--------|--0-----------------------------------|--------------------------------
E|-----------|--------------------|--------------------------------------|--------------------------------

Stave 5:

E|--5-----|--------------0-----------------0-----|--1--------0--------------------------|-----------|--
B|-----1--|-----------3-----0--1--------3--------|-----3--------3-----2--------0--2-----|--3-----3--|--
G|--------|--------0-----------------2-----3--2--|--------2--------3--------2--------2--|--2-----2--|--
D|--------|-----0-----------2-----2--------------|-----------------3-----2--------------|--0-----3--|--
A|--------|--------------------0-----------4-----|--------------------0-----------------|-----0--0--|--
E|--------|--3-----------0-----------------------|--------------------------------------|-----------|--

Stave 6:

E|-----------------1--------------------|--------------------------1--|--------------------|--
B|--------------1--------------------3--|-----------------3-----1-----|-----------------3--|--
G|-----------2--------------------2-----|--------------4--------------|-----------0--3-----|--
D|--------3-----------0-----0--3--------|--------1--5--------3--------|--1-----1-----------|--
A|-----3-----------------0--------------|-----1-----------------------|-----1--------------|--
E|--1-----------------------------------|--0--------------------------|--------------------|--

Stave 7:

E|----
B|----
G|----
D|----
A|----
E|----

Stave 8:

E|--------------------|--------------------------------------|----------1----1-------1--|--
B|--------------------|-----------------1-----------------1--|-------1--1-------3----3--|--
G|--------------0--3--|--------------2-----------------0-----|--2----2--2----2--2----2--|--
D|-----------1--------|--0-----0--3-----------------2--------|-------3-------0--3-------|--
A|--3-----3-----------|-----0--------------0-----0-----------|--3-----------------------|--
E|-----3--------------|-----------------------0--------------|--1-----------------------|--

Stave 9:

E|--0---------0-------------------|--1----0-----------------|-------------------|--
B|-------1----1----------------0--|--3---------3----2-------|----3-----------3--|--
G|--0----0----0----0----2------0--|--2---------0----2----0--|----2-----------2--|--
D|-------2---------2----4---------|--0----3---------2-------|----0----2------0--|--
A|--3--------------0----2------4--|-------3----1----0-------|----------------0--|--
E|--------------------------------|-------------------------|-------------------|--

Stave 10:

E|-----------------0--2--5--10--12--17------------------------------------------
B|------------------------------------------------------------------------------
G|--------------2---------------------------------------------------------------
D|--0-----0--4------------------------------------------------------------------
A|-----0------------------------------------------------------------------------
E|------------------------------------------------------------------------------

http://www.guitartabcreator.com
Guitar Tab Creator is intended to store guitar tab created through the tool. It currently does not support in-line text editing. Any text you place in here will be lost. If you need to comment on your tab, please use the "Tab Notes" section located below.