Sound will begin in 5 seconds

Crossing Field

01234567891011121314151617181920212223
E
B
G
D
A
E
B
0 1 2 3 4 5 6 7 8 9 10 11 12 13 14 15 16 17 18 19 20 21 22 23
Song Science #1: How Pros Use 6 Chords to Write Hit Songs
(/) Slide Up  (\) Slide Down  (h) Hammer On  (p) Pull Off  (b) Bend (r) Release (v) Vibrato

Stave 1:

E|----------8-------10--8--------------------13--12--8--10--10--10--10--
B|--6h8h10-----6\5---------10h11--10--8--10-----------------------------
G|----------------------------------------------------------------------
D|----------------------------------------------------------------------
A|----------------------------------------------------------------------
E|----------------------------------------------------------------------

Stave 2:

E|-----------------------------------------------8----------------
B|------------8---------------------8-----------------------------
G|--10p9--10-----7--7--9--10p9--10-----7--7--10-----10--9--7------
D|------------------------------------------------------------10--
A|----------------------------------------------------------------
E|----------------------------------------------------------------

Stave 3:

E|-------------------------------------8--8-------------
B|------------8---------------------8--------------8\6--
G|--10p9--10-----7--7--9--10p9--10-----------10\9-------
D|------------------------------------------------------
A|------------------------------------------------------
E|------------------------------------------------------

Stave 4:

E|---------------------------------------------------------------------------------------------
B|--------8--10------8-----------------------8p6--8--10--11--8--6--8p6--8----------------------
G|--9/10---------10-----9------7--10-----10--------------------------------13--11--8--10--6h8--
D|-------------------------10---------9--------------------------------------------------------
A|---------------------------------------------------------------------------------------------
E|---------------------------------------------------------------------------------------------

Stave 5:

E|----------8-------10--8-------------------------------------------------------------10--9--
B|--6h8h10-----6\5---------10/11--10--8--11\10--8h10--8h10--8h10--8h10--8h10--10--10---------
G|-------------------------------------------------------------------------------------------
D|-------------------------------------------------------------------------------------------
A|-------------------------------------------------------------------------------------------
E|-------------------------------------------------------------------------------------------

Stave 6:

E|----------10p8-------------
B|--6h8h10--------10h11--10--
G|---------------------------
D|---------------------------
A|---------------------------
E|---------------------------

http://www.guitartabcreator.com
Guitar Tab Creator is intended to store guitar tab created through the tool. It currently does not support in-line text editing. Any text you place in here will be lost. If you need to comment on your tab, please use the "Tab Notes" section located below.