Sound will begin in 5 seconds

Patience Main Solo

01234567891011121314151617181920212223
E
B
G
D
A
E
B
0 1 2 3 4 5 6 7 8 9 10 11 12 13 14 15 16 17 18 19 20 21 22 23
Song Science #1: How Pros Use 6 Chords to Write Hit Songs
(/) Slide Up  (\) Slide Down  (h) Hammer On  (p) Pull Off  (b) Bend (r) Release (v) Vibrato

Stave 1:

E|--8--8--8/10\8------------8/10--8--10/12--|--8--8--8/10\8-------------------10/12--10--10--
B|----------------10/12--8------------------|----------------10/12--10--8--8-----------------
G|------------------------------------------|------------------------------------------------
D|------------------------------------------|------------------------------------------------
A|------------------------------------------|------------------------------------------------
E|------------------------------------------|------------------------------------------------

Stave 2:

E|--12/14--12--10--12--10--|-------0--3-----------------------------------------0--3-------
B|-------------------------|--3b3--------3b3--1--3---------0--3---------0--3b3--------3b3--
G|-------------------------|------------------------2b4r2--------2b4r2---------------------
D|-------------------------|---------------------------------------------------------------
A|-------------------------|---------------------------------------------------------------
E|-------------------------|---------------------------------------------------------------

Stave 3:

E|----------3--5b5--3-----5b5--3-----3--5--5b5--5--5--3--5b5--3--5-----3--5--3--5/7--5--5--
B|--1--3/5-------------5----------5---------------------------------5----------------------
G|-----------------------------------------------------------------------------------------
D|-----------------------------------------------------------------------------------------
A|-----------------------------------------------------------------------------------------
E|-----------------------------------------------------------------------------------------

Stave 4:

E|----------------------------------------------------
B|--3/5--3------------------7b7------------------7b7--
G|----------4p2-------2----------4p2-------2----------
D|---------------3h4-----0------------3h4-----0-------
A|----------------------------------------------------
E|----------------------------------------------------

http://www.guitartabcreator.com
Guitar Tab Creator is intended to store guitar tab created through the tool. It currently does not support in-line text editing. Any text you place in here will be lost. If you need to comment on your tab, please use the "Tab Notes" section located below.