Sound will begin in 5 seconds

אמן - תמיד אני תמיד אתה

01234567891011121314151617181920212223
E
B
G
D
A
E
B
0 1 2 3 4 5 6 7 8 9 10 11 12 13 14 15 16 17 18 19 20 21 22 23
Song Science #1: How Pros Use 6 Chords to Write Hit Songs
(/) Slide Up  (\) Slide Down  (h) Hammer On  (p) Pull Off  (b) Bend (r) Release (v) Vibrato

Stave 1:

Eb|--------------------------------------|--------------------------------------|--
Bb|--------------------------------------|--------------------------------------|--
Gb|--------------------------------------|--------------------------------------|--
Db|--------------5-----------------------|--------------5-----------------------|--
Ab|--5--7-----------7--------7--5--5--5--|--5--7-----------7--------7--5--5--5--|--
Eb|--------0--0--------0--0--------------|--------0--0--------0--0--------------|--

Stave 2:

Eb|---------------------------------------------------|---------------------------------------------|--
Bb|---------------------------------------------------|---------------------------------------------|--
Gb|--9-----9-----9------------------------------------|--9--9--9--9---------------------------------|--
Db|-----------------9--10--10--10--10--5--5--5--5--5--|--------------9--10--10--10--10--12--12--12--|--
Ab|--7-----7-----7--9--10--10--10--10--5--5--5--5--5--|--7--7--7--7--9--10--10--10--10--12--12--12--|--
Eb|-----0-----0-----7--8---8---8---8---3--3--3--3--3--|-----0-----0--7--8---8---8---8---10--10--10--|--

Stave 3:

Eb|-----------------------------------------------------------|-------------------------------------|--
Bb|-----------------------------------------------------------|-------------------------------------|--
Gb|-----------9v-----------7v--9------------------------------|--9-----9--9-------------------------|--
Db|-------------------------------9--10--10--10--10--5--5--5--|--------------9--10--10--10--10--12--|--
Ab|-----------7------------5---7--9--10--10--10--10--5--5--5--|--7-----7--7--9--10--10--10--10--12--|--
Eb|--0--0--0------0--0--0---------7--8---8---8---8---3--3--3--|--0--0-----0--7--8---8---8---8---10--|--

Stave 4:

Eb|--------------------------------------|--7--7--7--7--7--7--7--|--
Bb|--------------------------------------|--8--7--8--7--8--7--8--|--
Gb|--------------------------------------|--9--9--9--9--9--9--9--|--
Db|--------------------------------------|-----------------------|--
Ab|--------------------------------------|-----------------------|--
Eb|--0--0--0--0--0--0--0--0--0--0--0--0--|-----------------------|--

Stave 5:

Eb|--
Bb|--
Gb|--
Db|--
Ab|--
Eb|--

Stave 6:

Eb|--7--7--7--7--7--7--7--|--7--7--7--7--7--7--7--7--7--7--7--7--7--7--7--7--|--
Bb|--8--7--8--7--8--7--8--|--8--8--8--8--7--7--7--7--7--8--8--8--8--7--7--7--|--
Gb|--9--9--9--9--9--9--9--|--9--9--9--9--9--9--9--9--9--9--9--9--9--9--9--9--|--
Db|-----------------------|--------------------------------------------------|--
Ab|-----------------------|--------------------------------------------------|--
Eb|-----------------------|--------------------------------------------------|--

Stave 7:

Eb|-----------------------------------------------------------|-----------------------------------------
Bb|-----------------------------------------------------------|-----------------------------------------
Gb|-----------------------------------------------------------|-----------------------------------------
Db|--------------------------------------------------------5--|--9--9--9--9--7--7--7--7--7--7--5--5--5--
Ab|--------------------------------------------------------3--|--7--7--7--7--5--5--5--5--5--5--3--3--3--
Eb|--0--1--1--0--1--1--1--1--1--1--1--3--3--3--3--3--3--3-----|-----------------------------------------

Stave 8:

Eb|--------------------|-----------------------------------------|--------------------------------------
Bb|--------------------|-----------------------------------------|--------------------------------------
Gb|--------------------|--8-----------8-----------8-----------9--|--------------------------------------
Db|--7--7--7--7--7--7--|-----------------------------------------|--9--7--6--5--5--5--5-----------------
Ab|--5--5--5--6--6--6--|--6-----------6-----------6-----------7--|--7--5--4--3--3--3--3--5--5--5--5--5--
Eb|--------------------|-----0--0--0-----0--0--0-----0--0--0-----|-----------------------3--3--3--3--3--

Stave 9:

Eb|-------------------------------------------------|--------------------------------------------------
Bb|-------------------------------------------------|--------------------------------------------------
Gb|--9--9--9--9-------------------------------------|-----------9v-----------7v--9---------------------
Db|--------------9--10--10--10--12--12--12--12--12--|-------------------------------9--10--10--10--10--
Ab|--7--7--7--7--9--10--10--10--12--12--12--12--12--|-----------7------------5---7--9--10--10--10--10--
Eb|-----0-----0--7--8---8---8---10--10--10--10--10--|--0--0--0------0--0--0---------7--8---8---8---8---

Stave 10:

Eb|-----------------|----------------------------------------------------------------------------------
Bb|-----------------|----------------------------------------------------------------------------------
Gb|-----------------|--9-----9-----9-------------------------------------------------------------------
Db|--5--5--5--5--5--|-----------------9--10--10--12--12--12--12--12--12--------------------------------
Ab|--5--5--5--5--5--|--7--7--7-----7--9--10--10--12--12--12--12--12--12--------------------------------
Eb|--3--3--3--3--3--|-----0-----0-----7--8---8---10--10--10--10--10--10--0--0--0--0--0--0--0--0--0--0--

Stave 11:

Eb|--------------------------------------|-----------------|--
Bb|--------------------------------------|-----------------|--
Gb|--------------------------------------|--9--9--9--9--9--|--
Db|--------------------------------------|--8--8--8--8--8--|--
Ab|--------------------------------------|--7--7--7--7--7--|--
Eb|--0--0--0--0--0--0--0--0--0--0--0--0--|-----------------|--

http://www.guitartabcreator.com
Guitar Tab Creator is intended to store guitar tab created through the tool. It currently does not support in-line text editing. Any text you place in here will be lost. If you need to comment on your tab, please use the "Tab Notes" section located below.