Sound will begin in 5 seconds

Hells Bells - ACDC

01234567891011121314151617181920212223
E
B
G
D
A
E
B
0 1 2 3 4 5 6 7 8 9 10 11 12 13 14 15 16 17 18 19 20 21 22 23
Song Science #1: How Pros Use 6 Chords to Write Hit Songs
(/) Slide Up  (\) Slide Down  (h) Hammer On  (p) Pull Off  (b) Bend (r) Release (v) Vibrato

Stave 1:

E|--------------------------------------------------------------------------
B|--------------------------------------------------------------------------
G|-----9-----7--------5--------7-----------9-----7--------5--------7--------
D|--------7-----7--------5--------7-----------7-----7--------5-----7--5--5--
A|--0--------------0--------0--------0--0--------------0--------0-----3--2--
E|--------------------------------------------------------------------------

Stave 2:

E|--------------------3--2--------
B|--------------------3--3--------
G|-----9-----7--------0--2--------
D|--------7-----7-----0--0--5-----
A|--0--------------0--2-----3-----
E|--------------------3-----------

Stave 3:

E|--------------x--------------------------
B|--------------x--------------------------
G|-----9--7--9--x--7--5--7--x--x--7--------
D|--2--7--7--7--x--7--5--7--7--7--7--5--5--
A|--0-----------x--5--5--5--5--5--5--3--2--
E|--------------x--------------------------

Stave 4:

E|--------------------------------------------
B|-----------------3--0--3--------3-----------
G|-----2--0--2-----2--0--2--------2-----------
D|--2--2--0--2-----0--0--0--------0-----5--5--
A|--0--0--0--0--0-----------0--0-----0--3--2--
E|--------------------------------------------

http://www.guitartabcreator.com
Guitar Tab Creator is intended to store guitar tab created through the tool. It currently does not support in-line text editing. Any text you place in here will be lost. If you need to comment on your tab, please use the "Tab Notes" section located below.