Sound will begin in 5 seconds

Say Something

01234567891011121314151617181920212223
E
B
G
D
A
E
B
0 1 2 3 4 5 6 7 8 9 10 11 12 13 14 15 16 17 18 19 20 21 22 23
Song Science #1: How Pros Use 6 Chords to Write Hit Songs
(/) Slide Up  (\) Slide Down  (h) Hammer On  (p) Pull Off  (b) Bend (r) Release (v) Vibrato

Stave 1:

E|-----------------------------|-----------|---------------------------|-
B|-----------------------------|-----------|---------------------------|-
G|-9/11-9-9-9-9-9/11-9-7-7v-/9-|-7h9-7-----|-9/11-9-9-9v-9-9/11-9-7-7v-|-
D|-----------------------------|-------9p7-|---------------------------|-
A|-----------------------------|-----------|---------------------------|-
E|-----------------------------|-----------|---------------------------|-

Stave 2:

E|--------|---------------------------|--------------------|---
B|--------|---------------------------|--------------------|---
G|-6b7r6v-|---6-7---------------------|--------------------|---
D|--------|-9-----5v-5-5-5-7----------|--------------5-----|---
A|--------|------------------7b9r7b9v-|---5-7b9-5h7v---7p5-|---
E|--------|---------------------------|-7------------------|---

Stave 3:

E|-12b14-12-12-12-12-12b14-12-10-10v-h12-|-
B|---------------------------------------|-
G|---------------------------------------|-
D|---------------------------------------|-
A|---------------------------------------|-
E|---------------------------------------|-

Stave 4:

E|----10v-----10-12-12b14--------------|-------------------------------|-
B|-10------10-------------12b14r12b14v-|-12b15-15-15v-r12-10-12-12b15v-|-
G|-------------------------------------|-------------------------------|-
D|-------------------------------------|-------------------------------|-
A|-------------------------------------|-------------------------------|-
E|-------------------------------------|-------------------------------|-

Stave 5:

E|--------------------------|-------------------|-
B|-----10/12-10-10h12-------|-10h12v-10---------|-
G|-7-7----------------9/11v-|-----------9v-/11v-|-
D|--------------------------|-------------------|-
A|--------------------------|-------------------|-
E|--------------------------|-------------------|-

Stave 6:

E|----10v----10-12-12b14--------------12----------------------------|-
B|-10-----10-------------12b14r12b14v----14r12-10h12p10----10-10h12-|-
G|------------------------------------------------------11----------|-
D|------------------------------------------------------------------|-
A|------------------------------------------------------------------|-
E|------------------------------------------------------------------|-

Stave 7:

E|---------------------------------------------------|-
B|-12b15-15-15v-r12-10-12-12v---10/12-10-10-12-------|-
G|----------------------------7----------------9/11v-|-
D|---------------------------------------------------|-
A|---------------------------------------------------|-
E|---------------------------------------------------|-

Stave 8:

E|--------------|----------10---------|-
B|-10h12v-10----|----10-12----12v-p10-|-
G|-----------9v-|-11------------------|-
D|--------------|---------------------|-
A|--------------|---------------------|-
E|--------------|---------------------|-

Stave 9:

E|-12b14-12-12-12-12-12b14-12-10-10v-|-17------------------|-
B|-----------------------------------|----17b19-15h17v-b19-|-
G|-----------------------------------|---------------------|-
D|-----------------------------------|---------------------|-
A|-----------------------------------|---------------------|-
E|-----------------------------------|---------------------|-

Stave 10:

E|----12b14-12-12-12v-12-12b14-12-10-10v-|-12b14-13-12b14-10h12v-|-
B|-12------------------------------------|-----------------------|-
G|---------------------------------------|-----------------------|-
D|---------------------------------------|-----------------------|-
A|---------------------------------------|-----------------------|-
E|---------------------------------------|-----------------------|-

Stave 11:

E|----------------------------------------|-
B|----14-15-----------------9/11-9/11v-\9-|-
G|-16-------12v-12-12-12-14---------------|-
D|----------------------------------------|-
A|----------------------------------------|-
E|----------------------------------------|-

Stave 12:

E|------------7----------------------------------|-
B|----------7---10-7-----------------------------|-
G|---7-9b11----------11-9p7----------------------|-
D|-9------------------------9-7-----------7------|-
A|------------------------------9\7-5-7/9---9\7v-|-
E|-----------------------------------------------|-

Stave 13:

E|-12b14-12-12-12-12-12b14-12-10-10v-|-10----
B|-----------------------------------|----10-
G|-----------------------------------|-------
D|-----------------------------------|-------
A|-----------------------------------|-------
E|-----------------------------------|-------

http://www.guitartabcreator.com
Guitar Tab Creator is intended to store guitar tab created through the tool. It currently does not support in-line text editing. Any text you place in here will be lost. If you need to comment on your tab, please use the "Tab Notes" section located below.