Fellowship Church: Everlasting God Solo

Chords

01234567891011121314151617181920212223
E
B
G
D
A
E
B
0 1 2 3 4 5 6 7 8 9 10 11 12 13 14 15 16 17 18 19 20 21 22 23
(/) Slide Up  (\) Slide Down  (h) Hammer On  (p) Pull Off  (b) Bend (r) Release (v) Vibrato

E|----------------------------------------------------------------------------------
B|--10--10--10--10--10--10--10--10--9--9--9--9--9--9--9--9--------------------------
G|----------------------------------------------------------8--8--8--8--8--8--8--8--
D|----------------------------------------------------------------------------------
A|----------------------------------------------------------------------------------
E|----------------------------------------------------------------------------------



E|---------------------------------------------------------------------------------------------
B|--------------------------10/16--16--16--16--16--16--16--16--16--16--16--16--16--16--16--16--
G|--9--9--9--9--9--9--9--9---------------------------------------------------------------------
D|---------------------------------------------------------------------------------------------
A|---------------------------------------------------------------------------------------------
E|---------------------------------------------------------------------------------------------



E|--16--16--16--16--16--16--16--16--17--17--17--17--17--17--17--17--
B|------------------------------------------------------------------
G|------------------------------------------------------------------
D|------------------------------------------------------------------
A|------------------------------------------------------------------
E|------------------------------------------------------------------
							http://www.guitartabcreator.com

Member for

8 years 10 months
Submitted by DMahannah on Tue, 2011-08-02 19:37