Sound will begin in 5 seconds

We Could All Be Friends by Mikayla Kilbury

01234567891011121314151617181920212223
E
B
G
D
A
E
B
0 1 2 3 4 5 6 7 8 9 10 11 12 13 14 15 16 17 18 19 20 21 22 23
Song Science #1: How Pros Use 6 Chords to Write Hit Songs
(/) Slide Up  (\) Slide Down  (h) Hammer On  (p) Pull Off  (b) Bend (r) Release (v) Vibrato

Stave 1:

E|----3-------------------3-------------------3-------------------3-------------------
B|----3----5----7----5----3----5----7----5----3----5----7----5----3----5----7----5----
G|----4----5----7----5----4----5----7----5----4----5----7----5----4----5----7----5----
D|----5----5----7----5----5----5----7----5----5----5----7----5----5----5----7----5----
A|----5-------------------5-------------------5-------------------5-------------------
E|----3----5----7----5----3----5----7----5----3----5----7----5----3----5----7----5----

Stave 2:

E|-----------------------------------------------------------5----5----5----
B|----7----6----5----6----7----6----5----6----7----6----5----5----5----5----
G|----7----6----5----6----7----6----5----6----7----6----5----5----5----5----
D|----7----6----5----6----7----6----5----6----7----6----5-------------------
A|-----------------------------------------------------------5----5----5----
E|----7----6----5----6----7----6----5----6----7----6----5-------------------

Stave 3:

E|---------3-------------------3------------------------5----
B|---------3----5----7----5----3----5----7----6----5----5----
G|---------4----5----7----5----4----5----7----6----5----5----
D|---------5----5----7----5----5----5----7----6----5---------
A|---------5-------------------5------------------------5----
E|---------3----5----7----5----3----5----7----6----5---------

Stave 4:

E|----3-------------------3-------------------3-------------------3-------------------5----
B|----3----5----7----5----3----5----7----5----3----5----7----5----3----5----7----5----5----
G|----4----5----7----5----4----5----7----5----4----5----7----5----4----5----7----5----5----
D|----5----5----7----5----5----5----7----5----5----5----7----5----5----5----7----5---------
A|----5-------------------5-------------------5-------------------5-------------------5----
E|----3----5----7----5----3----5----7----5----3----5----7----5----3----5----7----5---------

Stave 5:

E|---------7----7----5----7----7----7----8-----10----
B|---------8----7----5----8----8----7----8-----10----
G|---------9----7----5----9----9----7----9-----11----
D|---------9----9----7----9----9----9----10----12----
A|---------7----9----7----7----7----9----10----12----
E|--------------7----5----3---------7----8-----10----

Stave 6:

E|---------3-------------------
B|---------3----5----7----5----
G|---------4----5----7----5----
D|---------5----5----7----5----
A|---------5-------------------
E|---------3----5----7----5----

Stave 7:

E|----------------------------------------------------------------5----5----5----
B|---------7----6----5----6----7----6----5----6----7----6----5----5----5----5----
G|---------7----6----5----6----7----6----5----6----7----6----5----5----5----5----
D|---------7----6----5----6----7----6----5----6----7----6----5-------------------
A|----------------------------------------------------------------5----5----5----
E|---------7----6----5----6----7----6----5----6----7----6----5-------------------

Stave 8:

E|----3-------------------3-------------------3-------------------3------------------------5----3---------
B|----3----5----7----5----5----5----7----5----3----5----7----5----3----5----7----6----5----5----3---------
G|----4----5----7----5----5----5----7----5----4----5----7----5----4----5----7----6----5----5----4---------
D|----5----5----7----5----5----5----7----5----5----5----7----5----5----5----7----6----5---------5---------
A|----5-------------------5-------------------5-------------------5------------------------5----5---------
E|----3----5----7----5----5----5----7----5----3----5----7----5----3----5----7----6----5---------3---------

http://www.guitartabcreator.com
Guitar Tab Creator is intended to store guitar tab created through the tool. It currently does not support in-line text editing. Any text you place in here will be lost. If you need to comment on your tab, please use the "Tab Notes" section located below.