Sound will begin in 5 seconds

Se vaikenee joka pelkää

01234567891011121314151617181920212223
E
B
G
D
A
E
B
0 1 2 3 4 5 6 7 8 9 10 11 12 13 14 15 16 17 18 19 20 21 22 23
Song Science #1: How Pros Use 6 Chords to Write Hit Songs
(/) Slide Up  (\) Slide Down  (h) Hammer On  (p) Pull Off  (b) Bend (r) Release (v) Vibrato

Stave 1:

E|--------------------------
B|--------------------------
G|--------------------------
D|--------------------------
A|-----6-----6--7--6--7--6--
E|--7-----7-----------------

Stave 2:

E|--------------------------
B|--------------------------
G|-----8-----8--9--8--9--8--
D|--9-----9-----------------
A|--------------------------
E|--------------------------

Stave 3:

E|------11------11--12--11--12--11------11------11--12--11--12--11------15--15--15--15--15--15--19--19--
B|--12------12----------------------12------12----------------------12----------------------------------
G|------------------------------------------------------------------------------------------------------
D|------------------------------------------------------------------------------------------------------
A|------------------------------------------------------------------------------------------------------
E|------------------------------------------------------------------------------------------------------

Stave 4:

E|--19--19--19--12--12--12--14--14--15--15--15--17--17--12--12--12--14--14--10--10--10--10--12--10------
B|--------------------------------------------------------------------------------------------------14--
G|------------------------------------------------------------------------------------------------------
D|------------------------------------------------------------------------------------------------------
A|------------------------------------------------------------------------------------------------------
E|------------------------------------------------------------------------------------------------------

Stave 5:

E|------12--12--12--14--14--15--15--15--17--17--19--20--17--19--16--17--16--17--16----------
B|--12------------------------------------------------------------------------------17--19--
G|------------------------------------------------------------------------------------------
D|------------------------------------------------------------------------------------------
A|------------------------------------------------------------------------------------------
E|------------------------------------------------------------------------------------------

http://www.guitartabcreator.com
Guitar Tab Creator is intended to store guitar tab created through the tool. It currently does not support in-line text editing. Any text you place in here will be lost. If you need to comment on your tab, please use the "Tab Notes" section located below.