while she wakes

01234567891011121314151617181920212223
E
B
G
D
A
E
B
0 1 2 3 4 5 6 7 8 9 10 11 12 13 14 15 16 17 18 19 20 21 22 23
(/) Slide Up  (\) Slide Down  (h) Hammer On  (p) Pull Off  (b) Bend (r) Release (v) Vibrato

Stave 1:

G|--------------------------
D|--------------------------
A|--0--3--------------------
E|--------1--1--------------
A|--------------5--3--0-----

Stave 2:

G|------------------------------------------------------------------------------------------------------------------------------------------
D|------------------------------------------------------------------------------------------------------------------------------------------
A|------------------------------------------------------------------------------------------------------------------------------------------
E|--5-----5--5-----5-----5--5-----5--8------------------------------------------------------------------------------------------------------
A|--------------------------------------8-----8--8-----8-----8--8-----8--7--5-----5--5-----5-----5--5-----5--3--0-----0--0-----0-----0--12--

Stave 3:

G|-----
D|-----
A|-----
E|-----
A|-----

							http://www.guitartabcreator.com
Chords

Instruments
{"strings":[[[".",".",".",".",".",".",".","."],[".",".",".",".",".",".",".","."],[0,3,".",".",".",".",".","."],[".",".",1,1,".",".",".","."],[".",".",".",".",5,3,0,"."]],[[".","_",".",".","_",".","_",".",".","_",".",".",".","_",".",".","_",".","_",".",".","_",".",".",".","_",".",".","_",".","_",".",".","_",".",".",".","_",".",".","_",".","_",".","."],[".","_",".",".","_",".","_",".",".","_",".",".",".","_",".",".","_",".","_",".",".","_",".",".",".","_",".",".","_",".","_",".",".","_",".",".",".","_",".",".","_",".","_",".","."],[".","_",".",".","_",".","_",".",".","_",".",".",".","_",".",".","_",".","_",".",".","_",".",".",".","_",".",".","_",".","_",".",".","_",".",".",".","_",".",".","_",".","_",".","."],[5,"_",5,5,"_",5,"_",5,5,"_",5,8,".","_",".",".","_",".","_",".",".","_",".",".",".","_",".",".","_",".","_",".",".","_",".",".",".","_",".",".","_",".","_",".","."],[".","_",".",".","_",".","_",".",".","_",".",".",8,"_",8,8,"_",8,"_",8,8,"_",8,7,5,"_",5,5,"_",5,"_",5,5,"_",5,3,0,"_",0,0,"_",0,"_",0,12]],[["_"],["_"],["_"],["_"],["_"]]],"numberofstrings":5,"notes":["G","D","A","E","A"],"capo":0,"stringnotes":["G2","D2","A1","E1","A3"],"comments":["Stave 1:","Stave 2:","Stave 3:"],"timing":[["W","W","W","W","W","W","W"],["W","W","W","W","W","W","W","W","W","W","W","W","W","W","W","W","W","W","W","W","W","W","W","W","W","W","W","W","W","W","W","W","W","W","W","W","W","W","W","W","W","W","W","W","W"],["W"]],"timingvisible":false,"tabcounter":1,"stave":2,"totalstaves":3,"instrument":"5bass","selectedtuning":"5bass","version":"13"}

Member for

3 months 2 weeks
About Me
<3
Submitted by Distorted Views on Mon, 2021-10-04 23:16