More Rap More Metal Guitar

01234567891011121314151617181920212223
E
B
G
D
A
E
B
0 1 2 3 4 5 6 7 8 9 10 11 12 13 14 15 16 17 18 19 20 21 22 23
(/) Slide Up  (\) Slide Down  (h) Hammer On  (p) Pull Off  (b) Bend (r) Release (v) Vibrato

Stave 1:

B |---------------------------------------------------------------------------------------------------------
Gb|---------------------------------------------------------------------------------------------------------
D |---------------------------------------------------------------------------------------------------------
A |---------------------------------------------------------------------------------------------------------
E |-0-12------0-12------------0-12------0-12------------------0-12------0-12------------0-12--------7---8-5-
B |-------------------------------------------------------------------------------------------------5---6-3-
E |------13-0------13-0-12-12------13-0------13-0-10-10-10-10------13-0------13-0-12-12------13-0-0---0-----

Stave 2:

B |---------------------------------
Gb|---------------------------------
D |---------------------------------
A |---------------------------------
E |-0-0-0-1-1-1-0-0-0---------------
B |-------------------3-3-3-3-3-3-3-
E |---------------------------------

Stave 3:

B |-
Gb|-
D |-
A |-
E |-
B |-
E |-

							http://www.guitartabcreator.com
Chords

genre
Instruments
{"strings":[[[".",".",".",".",".",".",".",".",".",".",".",".",".",".",".",".",".",".",".",".",".",".",".",".",".",".",".",".",".",".",".",".",".",".",".",".",".",".",".",".","."],[".",".",".",".",".",".",".",".",".",".",".",".",".",".",".",".",".",".",".",".",".",".",".",".",".",".",".",".",".",".",".",".",".",".",".",".",".",".",".",".","."],[".",".",".",".",".",".",".",".",".",".",".",".",".",".",".",".",".",".",".",".",".",".",".",".",".",".",".",".",".",".",".",".",".",".",".",".",".",".",".",".","."],[".",".",".",".",".",".",".",".",".",".",".",".",".",".",".",".",".",".",".",".",".",".",".",".",".",".",".",".",".",".",".",".",".",".",".",".",".",".",".",".","."],[0,12,".",".",0,12,".",".",".",".",0,12,".",".",0,12,".",".",".",".",".",".",0,12,".",".",0,12,".",".",".",".",0,12,".",".",".",7,".",8,5],[".",".",".",".",".",".",".",".",".",".",".",".",".",".",".",".",".",".",".",".",".",".",".",".",".",".",".",".",".",".",".",".",".",".",".",".",".",5,".",6,3],[".",".",13,0,".",".",13,0,12,12,".",".",13,0,".",".",13,0,10,10,10,10,".",".",13,0,".",".",13,0,12,12,".",".",13,0,0,".",0,".","."]],[[".",".",".",".",".",".",".",".",".",".",".",".",".",".",".","."],[".",".",".",".",".",".",".",".",".",".",".",".",".",".",".","."],[".",".",".",".",".",".",".",".",".",".",".",".",".",".",".","."],[".",".",".",".",".",".",".",".",".",".",".",".",".",".",".","."],[0,0,0,1,1,1,0,0,0,".",".",".",".",".",".","."],[".",".",".",".",".",".",".",".",".",3,3,3,3,3,3,3],[".",".",".",".",".",".",".",".",".",".",".",".",".",".",".","."]],[[],[],[],[],[],[],[]]],"numberofstrings":7,"notes":["B","FsGb","D","A","E","B","E"],"capo":0,"stringnotes":["B6","Gb2","D2","A1","E4","B7","E5"],"comments":["Stave 1:","Stave 2:","Stave 3:"],"timing":[["W","W","W","W","W","W","W","W","W","W","W","W","W","W","W","W","W","W","W","W","W","W","W","W","W","W","W","W","W","W","W","W","W","W","W","W","W","W","W","W","W"],["W","W","W","W","W","W","W","W","W","W","W","W","W","W","W","W"],[]],"timingvisible":false,"tabcounter":0,"stave":2,"totalstaves":3,"instrument":"7guitar","selectedtuning":"7guitar","version":"13"}

Member for

2 months 2 weeks
About Me
<3
Submitted by Distorted Views on Thu, 2021-08-05 22:48