More Rap More Metal BASS

01234567891011121314151617181920212223
E
B
G
D
A
E
B
0 1 2 3 4 5 6 7 8 9 10 11 12 13 14 15 16 17 18 19 20 21 22 23
(/) Slide Up  (\) Slide Down  (h) Hammer On  (p) Pull Off  (b) Bend (r) Release (v) Vibrato

Head banger

D|----------------------------------------------------------------------------
A|----------------------------------------------------------------------------
E|----------------------------------------------------------------------------
B|----------------------------------------------------------------------------
E|--0--12--13--0--12--13--0--12--12--0--12--13--0--12--13--0--10--10--10--10--

Transition

D|--------------------
A|--------------------
E|--------------------
B|-----5-----6--3--5--
E|--0-----0-----------

Rap verse

D|--------------------------------------------------
A|--------------------------------------------------
E|--0--0--0--1--1--1--0--0--0-----------------------
B|-----------------------------3--3--3--3--3--3--3--
E|--------------------------------------------------

Stave 4:

D|-------------------------------------------------------------
A|-------------------------------------------------------------
E|-------------------------------------------------------------
B|-------------------------------------------------------------
E|--12--12--12--0--0--0--10--10--10--13--13--13--13--13--0--0--

Stave 5:

D|-----------------
A|-----------------
E|-----------------
B|-----------------
E|--0--0--0--------

							http://www.guitartabcreator.com
Chords

genre
Instruments
{"strings":[[[".",".",".",".",".",".",".",".",".",".",".",".",".",".",".",".",".",".",".","."],[".",".",".",".",".",".",".",".",".",".",".",".",".",".",".",".",".",".",".","."],[".",".",".",".",".",".",".",".",".",".",".",".",".",".",".",".",".",".",".","."],[".",".",".",".",".",".",".",".",".",".",".",".",".",".",".",".",".",".",".","."],[0,12,13,0,12,13,0,12,12,0,12,13,0,12,13,0,10,10,10,10]],[[".",".",".",".",".","."],[".",".",".",".",".","."],[".",".",".",".",".","."],[".",5,".",6,3,5],[0,".",0,".",".","."]],[[".",".",".",".",".",".",".",".",".",".",".",".",".",".",".","."],[".",".",".",".",".",".",".",".",".",".",".",".",".",".",".","."],[0,0,0,1,1,1,0,0,0,".",".",".",".",".",".","."],[".",".",".",".",".",".",".",".",".",3,3,3,3,3,3,3],[".",".",".",".",".",".",".",".",".",".",".",".",".",".",".","."]],[[".",".",".",".",".",".",".",".",".",".",".",".",".",".",".","."],[".",".",".",".",".",".",".",".",".",".",".",".",".",".",".","."],[".",".",".",".",".",".",".",".",".",".",".",".",".",".",".","."],[".",".",".",".",".",".",".",".",".",".",".",".",".",".",".","."],[12,12,12,0,0,0,10,10,10,13,13,13,13,13,0,0]],[[".",".",".","_","_"],[".",".",".","_","_"],[".",".",".","_","_"],[".",".",".","_","_"],[0,0,0,"_","_"]]],"numberofstrings":5,"notes":["D","A","E","B","E"],"capo":0,"stringnotes":["D1","A2","E2","B2","E1"],"comments":["Head banger","Transition","Rap verse","Stave 4:","Stave 5:"],"timing":[["W","W","W","W","W","W","W","W","W","W","W","W","W","W","W","W","W","W","W","W"],["W","W","W","W","W","W"],["W","W","W","W","W","W","W","W","W","W","W","W","W","W","W","W"],["W","W","W","W","W","W","W","W","W","W","W","W","W","W","W","W"],["W","W","W","W","W"]],"timingvisible":false,"tabcounter":5,"stave":4,"totalstaves":5,"instrument":"5bass","selectedtuning":"5bass","version":"13"}

Member for

2 months 2 weeks
About Me
<3
Submitted by Distorted Views on Thu, 2021-08-05 23:51