Jump Around DROP B

01234567891011121314151617181920212223
E
B
G
D
A
E
B
0 1 2 3 4 5 6 7 8 9 10 11 12 13 14 15 16 17 18 19 20 21 22 23
(/) Slide Up  (\) Slide Down  (h) Hammer On  (p) Pull Off  (b) Bend (r) Release (v) Vibrato

Stave 1:

Db|---------------------------------------------------------
Ab|---------------------------------------------------------
E |---------------------------------------------------------
B |-0-4-3-1-0-3-0-4-3-1-0-3-0-4-3-1-0-1-0-0-0-1-------0-0-7-
Gb|-0-4-3-1-0-3-0-4-3-1-0-3-0-4-3-1-0-1-0-0-0-1-------0-0-5-
B |-0-4-3-1-0-3-0-4-3-1-0-3-0-4-3-1-0-1-0-0-0-1-------0-0-0-

rap verse

Db|---
Ab|---
E |---
B |-0-
Gb|-0-
B |-0-

Stave 3:

Db|-------------------------------------------------------
Ab|-------------------------------------------------------
E |-------------------------------------------------------
B |-0-0-1-0-1-0-0-0-1-0-1-0-1-0-0-1-0-1-0-0-4-3-0-1-3-0-1-
Gb|-0-0-1-0-1-0-0-0-1-0-1-0-1-0-0-1-0-1-0-0-4-3-0-1-3-0-1-
B |-0-0-1-0-1-0-0-0-1-0-1-0-1-0-0-1-0-1-0-0-4-3-0-1-3-0-1-

Stave 4:

Db|----------------
Ab|----------------
E |----------------
B |----------------
Gb|----------------
B |-12b12b12b12b12b

BREAK DOWN

Db|---
Ab|---
E |---
B |---
Gb|-6-
B |-0-

palm mute bridge

Db|---------------------------------
Ab|---------------------------------
E |---------------------------------
B |-1-0-0-1-0-0-3-0-1-0-0-1-0-0-0-0-
Gb|-1-0-0-1-0-0-3-0-1-0-0-1-0-0-0-0-
B |-1-0-0-1-0-0-3-0-1-0-0-1-0-0-0-0-

Stave 7:

Db|-----------------------------------------------
Ab|-----------------------------------------------
E |-----------------------------------------------
B |-0-0-4-3-1-0-0-4-3-1-0-0-4-3-1-0-4-3-0-1-3-0-1-
Gb|-0-0-4-3-1-0-0-4-3-1-0-0-4-3-1-0-4-3-0-1-3-0-1-
B |-0-0-4-3-1-0-0-4-3-1-0-0-4-3-1-0-4-3-0-1-3-0-1-

Stave 8:

Db|---
Ab|---
E |---
B |---
Gb|---
B |-0-

							http://www.guitartabcreator.com
Chords

Instruments
{"strings":[[[".",".",".",".",".",".",".",".",".",".",".",".",".",".",".",".",".",".",".",".",".",".","_","_","_",".",".","."],[".",".",".",".",".",".",".",".",".",".",".",".",".",".",".",".",".",".",".",".",".",".","_","_","_",".",".","."],[".",".",".",".",".",".",".",".",".",".",".",".",".",".",".",".",".",".",".",".",".",".","_","_","_",".",".","."],[0,4,3,1,0,3,0,4,3,1,0,3,0,4,3,1,0,1,0,0,0,1,"_","_","_",0,0,7],[0,4,3,1,0,3,0,4,3,1,0,3,0,4,3,1,0,1,0,0,0,1,"_","_","_",0,0,5],[0,4,3,1,0,3,0,4,3,1,0,3,0,4,3,1,0,1,0,0,0,1,"_","_","_",0,0,0]],[["."],["."],["."],[0],[0],[0]],[[".",".",".",".",".",".",".",".",".",".",".",".",".",".",".",".",".",".",".",".",".",".",".",".",".",".","."],[".",".",".",".",".",".",".",".",".",".",".",".",".",".",".",".",".",".",".",".",".",".",".",".",".",".","."],[".",".",".",".",".",".",".",".",".",".",".",".",".",".",".",".",".",".",".",".",".",".",".",".",".",".","."],[0,0,1,0,1,0,0,0,1,0,1,0,1,0,0,1,0,1,0,0,4,3,0,1,3,0,1],[0,0,1,0,1,0,0,0,1,0,1,0,1,0,0,1,0,1,0,0,4,3,0,1,3,0,1],[0,0,1,0,1,0,0,0,1,0,1,0,1,0,0,1,0,1,0,0,4,3,0,1,3,0,1]],[[".",".",".",".",".",".",".",".",".","."],[".",".",".",".",".",".",".",".",".","."],[".",".",".",".",".",".",".",".",".","."],[".",".",".",".",".",".",".",".",".","."],[".",".",".",".",".",".",".",".",".","."],[12,"b",12,"b",12,"b",12,"b",12,"b"]],[["."],["."],["."],["."],[6],[0]],[[".",".",".",".",".",".",".",".",".",".",".",".",".",".",".","."],[".",".",".",".",".",".",".",".",".",".",".",".",".",".",".","."],[".",".",".",".",".",".",".",".",".",".",".",".",".",".",".","."],[1,0,0,1,0,0,3,0,1,0,0,1,0,0,0,0],[1,0,0,1,0,0,3,0,1,0,0,1,0,0,0,0],[1,0,0,1,0,0,3,0,1,0,0,1,0,0,0,0]],[[".",".",".",".",".",".",".",".",".",".",".",".",".",".",".",".",".",".",".",".",".",".","."],[".",".",".",".",".",".",".",".",".",".",".",".",".",".",".",".",".",".",".",".",".",".","."],[".",".",".",".",".",".",".",".",".",".",".",".",".",".",".",".",".",".",".",".",".",".","."],[0,0,4,3,1,0,0,4,3,1,0,0,4,3,1,0,4,3,0,1,3,0,1],[0,0,4,3,1,0,0,4,3,1,0,0,4,3,1,0,4,3,0,1,3,0,1],[0,0,4,3,1,0,0,4,3,1,0,0,4,3,1,0,4,3,0,1,3,0,1]],[["."],["."],["."],["."],["."],[0]]],"numberofstrings":6,"notes":["CsDb","GsAb","E","B","FsGb","B","B"],"capo":0,"stringnotes":["Db1","Ab1","E4","B4","Gb2","B3"],"comments":["Stave 1:","rap verse","Stave 3:","Stave 4:","BREAK DOWN","palm mute bridge","Stave 7:","Stave 8:"],"timing":[["W","W","W","W","W","W","W","W","W","W","W","W","W","W","W","W","W","W","W","W","W","W","W","W","W","W","W","W"],["W"],["W","W","W","W","W","W","W","W","W","W","W","W","W","W","W","W","W","W","W","W","W","W","W","W","W","W","W"],["W",null,"W",null,"W",null,"W",null,"W"],["W"],["W","W","W","W","W","W","W","W","W","W","W","W","W","W","W","W"],["W","W","W","W","W","W","W","W","W","W","W","W","W","W","W","W","W","W","W","W","W","W","W"],["W"]],"timingvisible":false,"tabcounter":1,"stave":7,"totalstaves":8,"instrument":"6guitar","selectedtuning":"6_standard","version":"13"}

Member for

3 months 2 weeks
About Me
<3
Submitted by Distorted Views on Sat, 2021-08-07 00:54