Jump around BASS tab DROP B

01234567891011121314151617181920212223
E
B
G
D
A
E
B
0 1 2 3 4 5 6 7 8 9 10 11 12 13 14 15 16 17 18 19 20 21 22 23
(/) Slide Up  (\) Slide Down  (h) Hammer On  (p) Pull Off  (b) Bend (r) Release (v) Vibrato

head banger

A |--------------------------------------------------------------------
E |--------------------------------------------------------------------
B |--------------------------------------------------------------------
Gb|--------------------------------------------------------------------
B |--0--4--3--1--0--3--0--4--3--1--0--3--0--4--3--1--0--3--0--0--0--1--

transition

A |--------------
E |--------------
B |--------------
Gb|-----------5--
B |--0--0--0-----

rap section

A |-----------------------------------------------------------------------------------------------
E |-----------------------------------------------------------------------------------------------
B |-----------------------------------------------------------------------------------------------
Gb|-----------------------------------------------------------------------------------------------
B |--0-----0--1--0--1--0-----0-----0--1--0--1--0-----0-----0--1--0--1--0-----0-----0--4--3--0--1--

head banger 2

A |-----------------------------------------------------------------------------------------------------
E |-----------------------------------------------------------------------------------------------------
B |-----------------------------------------------------------------------------------------------------
Gb|-----------------------------------------------------------------------------------------------------
B |--0-----0--1--0--1--0-----0-----0--1--0--1--0--1-----0-----0--1--0--1--0-----0--4--3--0--1--3--0--1--

break down 1

A |-----
E |-----
B |-----
Gb|-----
B |--0--

bridge

A |--------------------------------------------------
E |--------------------------------------------------
B |--1--0--0--1--0--0--3--0--1--0--0--1--0--0--0--0--
Gb|--------------------------------------------------
B |--------------------------------------------------

head banger 2nd

A |--------------------------------------------------------------------------
E |--------------------------------------------------------------------------
B |--------------------------------------------------------------------------
Gb|--------------------------------------------------------------------------
B |--0-----4--3--1--0-----4--3--1--0-----4--3--1-----0--4--3--0--1--3--0--1--

breakdown 2

A |-----
E |-----
B |-----
Gb|-----
B |--0--

							http://www.guitartabcreator.com
Chords

Instruments
{"strings":[[[".",".",".",".",".",".",".",".",".",".",".",".",".",".",".",".",".",".",".",".",".","."],[".",".",".",".",".",".",".",".",".",".",".",".",".",".",".",".",".",".",".",".",".","."],[".",".",".",".",".",".",".",".",".",".",".",".",".",".",".",".",".",".",".",".",".","."],[".",".",".",".",".",".",".",".",".",".",".",".",".",".",".",".",".",".",".",".",".","."],[0,4,3,1,0,3,0,4,3,1,0,3,0,4,3,1,0,3,0,0,0,1]],[[".",".",".","."],[".",".",".","."],[".",".",".","."],[".",".",".",5],[0,0,0,"."]],[[".","_",".",".",".",".",".","_",".","_",".",".",".",".",".","_",".","_",".",".",".",".",".","_",".","_",".",".",".",".","."],[".","_",".",".",".",".",".","_",".","_",".",".",".",".",".","_",".","_",".",".",".",".",".","_",".","_",".",".",".",".","."],[".","_",".",".",".",".",".","_",".","_",".",".",".",".",".","_",".","_",".",".",".",".",".","_",".","_",".",".",".",".","."],[".","_",".",".",".",".",".","_",".","_",".",".",".",".",".","_",".","_",".",".",".",".",".","_",".","_",".",".",".",".","."],[0,"_",0,1,0,1,0,"_",0,"_",0,1,0,1,0,"_",0,"_",0,1,0,1,0,"_",0,"_",0,4,3,0,1]],[[".","_",".",".",".",".",".","_",".","_",".",".",".",".",".",".","_",".","_",".",".",".",".",".","_",".",".",".",".",".",".",".","."],[".","_",".",".",".",".",".","_",".","_",".",".",".",".",".",".","_",".","_",".",".",".",".",".","_",".",".",".",".",".",".",".","."],[".","_",".",".",".",".",".","_",".","_",".",".",".",".",".",".","_",".","_",".",".",".",".",".","_",".",".",".",".",".",".",".","."],[".","_",".",".",".",".",".","_",".","_",".",".",".",".",".",".","_",".","_",".",".",".",".",".","_",".",".",".",".",".",".",".","."],[0,"_",0,1,0,1,0,"_",0,"_",0,1,0,1,0,1,"_",0,"_",0,1,0,1,0,"_",0,4,3,0,1,3,0,1]],[["."],["."],["."],["."],[0]],[[".",".",".",".",".",".",".",".",".",".",".",".",".",".",".","."],[".",".",".",".",".",".",".",".",".",".",".",".",".",".",".","."],[1,0,0,1,0,0,3,0,1,0,0,1,0,0,0,0],[".",".",".",".",".",".",".",".",".",".",".",".",".",".",".","."],[".",".",".",".",".",".",".",".",".",".",".",".",".",".",".","."]],[[".","_",".",".",".",".","_",".",".",".",".","_",".",".",".","_",".",".",".",".",".",".",".","."],[".","_",".",".",".",".","_",".",".",".",".","_",".",".",".","_",".",".",".",".",".",".",".","."],[".","_",".",".",".",".","_",".",".",".",".","_",".",".",".","_",".",".",".",".",".",".",".","."],[".","_",".",".",".",".","_",".",".",".",".","_",".",".",".","_",".",".",".",".",".",".",".","."],[0,"_",4,3,1,0,"_",4,3,1,0,"_",4,3,1,"_",0,4,3,0,1,3,0,1]],[["."],["."],["."],["."],[0]]],"numberofstrings":5,"notes":["A","E","B","FsGb","B"],"capo":0,"stringnotes":["A1","E1","B1","Gb1","B0"],"comments":["head banger","transition","rap section","head banger 2","break down 1","bridge","head banger 2nd","breakdown 2"],"timing":[["W","W","W","W","W","W","W","W","W","W","W","W","W","W","W","W","W","W","W","W","W","W"],["W","W","W","W"],["W","W","W","W","W","W","W","W","W","W","W","W","W","W","W","W","W","W","W","W","W","W","W","W","W","W","W","W","W","W","W"],["W","W","W","W","W","W","W","W","W","W","W","W","W","W","W","W","W","W","W","W","W","W","W","W","W","W","W","W","W","W","W","W","W"],["W"],["W","W","W","W","W","W","W","W","W","W","W","W","W","W","W","W"],["W","W","W","W","W","W","W","W","W","W","W","W","W","W","W","W","W","W","W","W","W","W","W","W"],["W"]],"timingvisible":false,"tabcounter":1,"stave":7,"totalstaves":8,"instrument":"5bass","selectedtuning":"5bass","version":"13"}

Member for

3 months 2 weeks
About Me
<3
Submitted by Distorted Views on Sun, 2021-08-08 22:53