Sound will begin in 5 seconds

Full Project 1

01234567891011121314151617181920212223
E
B
G
D
A
E
B
0 1 2 3 4 5 6 7 8 9 10 11 12 13 14 15 16 17 18 19 20 21 22 23
Song Science #1: How Pros Use 6 Chords to Write Hit Songs
(/) Slide Up  (\) Slide Down  (h) Hammer On  (p) Pull Off  (b) Bend (r) Release (v) Vibrato

Stave 1:

E|-----------------------------------------------------------
B|-----------------------------------------------------------
G|-----------------------------------------------------------
D|-----7---7-----5---5-----5/7-----7---7-----4---4-----4/5/7-
A|---5---5-----3---3-----0-------5---5-----2---2-----0-------
E|-5---------3---------0-------5---------2---------0---------

Stave 2:

E|-3-5---------3-5---------
B|-6-8---------6-8---------
G|-5-7---------5-7---------
D|-3-5-0-3-5-0-3-5-0-3-5-0-
A|-3-5-0-3-5-0-3-5-0-3-5-0-
E|-3-5-0-3-5-0-3-5-0-3-5-0-

Stave 3:

E|---2---------------
B|---3---------------
G|---2---------------
D|-0---3-5-2-3-2-3-0-
A|-0---3-5-2-3-2-3-0-
E|-0---3-5-2-3-2-3-0-

Stave 4:

E|-------------------------------------------------------------------
B|-------------------------------------------------------------------
G|-------------------------------------------------------------------
D|-------------------------------------------------------------------
A|---9---9---9---10---12---12---12---12---10---10---12---10---9h10p9-
E|-0---0---0---0----0----0----0----0----0----0----0----0----0--------

Stave 5:

E|-------------------------------------------------------------------------------
B|-------------------------------------------------------------------------------
G|-------------------------------------------------------------------------------
D|---------------------------------------------9-----7-----7-----5-----7-5-4h5p4-
A|---9---9---9---9---7---5---5---5---5---5---7-----5-----0-----0-----0-----------
E|-0---0---0---0---0---0---0---0---0---0---0-----0-----0-----0-----0-------------

http://www.guitartabcreator.com
Guitar Tab Creator is intended to store guitar tab created through the tool. It currently does not support in-line text editing. Any text you place in here will be lost. If you need to comment on your tab, please use the "Tab Notes" section located below.