Sound will begin in 5 seconds

Moskau

01234567891011121314151617181920212223
E
B
G
D
A
E
B
0 1 2 3 4 5 6 7 8 9 10 11 12 13 14 15 16 17 18 19 20 21 22 23
Song Science #1: How Pros Use 6 Chords to Write Hit Songs
(/) Slide Up  (\) Slide Down  (h) Hammer On  (p) Pull Off  (b) Bend (r) Release (v) Vibrato

Stave 1:

E|--|--|--|--|--|--|--|--|----------|--|----------|--|----------|------20--|----------|------19--|--
B|--|--|--|--|--|--|--|--|----------|--|----------|--|----------|--18------|----------|--16------|--
G|--|--|--|--|--|--|--|--|------17--|--|------16--|--|------17--|------17--|------16--|------16--|--
D|--|--|--|--|--|--|--|--|--15------|--|--13------|--|--15------|----------|--13------|----------|--
A|--|--|--|--|--|--|--|--|------15--|--|------14--|--|------15--|----------|------14--|----------|--
E|--|--|--|--|--|--|--|--|--13------|--|--11------|--|--13------|----------|--11------|----------|--

Stave 2:

E|-----|-----|-----|-----|-----|-----|-----|-----|--
B|-----|-----|-----|-----|-----|-----|-----|-----|--
G|-----|-----|-----|-----|-----|-----|-----|-----|--
D|--3--|-----|-----|-----|-----|-----|--3--|--3--|--
A|-----|--4--|-----|-----|-----|--3--|-----|-----|--
E|-----|-----|--4--|--6--|--1--|-----|-----|-----|--

Stave 3:

E|----------|----------|----------|----------|----------|----------|----------|----------|----------|--
B|--11--11--|----------|--11--11--|----------|--11--11--|----------|----------|----------|----------|--
G|--12--12--|--13--13--|--12--12--|--13--13--|--12--12--|--13--13--|--13--13--|--12--12--|--12--12--|--
D|--13--14--|--15--15--|--13--14--|--15--15--|--13--14--|--15--15--|--15--15--|--14--13--|--14--13--|--
A|--13--13--|--15--15--|--13--13--|--15--15--|--13--13--|--15--15--|--16--15--|--15--15--|--15--15--|--
E|--11--11--|--13--13--|--11--11--|--13--13--|--11--11--|--13--13--|--13--13--|--12--x---|--12--x---|--

Stave 4:

E|----------|----------|----------|----------|----------|----------|----------|--------------|--
B|----------|----------|----------|------13--|----------|----------|----------|--------------|--
G|--13--13--|--13--13--|--15--13--|--16--12--|--13--13--|--13--13--|--15--13--|--12--13--13--|--
D|--15--15--|--15--13--|--15--15--|--15--14--|--15--15--|--15--13--|--15--15--|--14--15--15--|--
A|--15--15--|--16--15--|--16--15--|--17--x---|--15--15--|--16--15--|--16--15--|--15--15--15--|--
E|--13--13--|--13--13--|--15--13--|--15--x---|--13--13--|--13--13--|--15--13--|--12--13--13--|--

Stave 5:

E|----------|----------|----------|----------|----------|----------|----------|------|--
B|----------|----------|----------|------13--|----------|----------|----------|------|--
G|--13--13--|--13--13--|--15--13--|--16--12--|--13--13--|--13--13--|--15--13--|--12--|--
D|--15--15--|--15--13--|--15--15--|--15--14--|--15--15--|--15--13--|--15--15--|--14--|--
A|--15--15--|--16--15--|--16--15--|--17--x---|--15--15--|--16--15--|--16--15--|--15--|--
E|--13--13--|--13--13--|--15--13--|--15--x---|--13--13--|--13--13--|--15--13--|--12--|--

Stave 6:

E|----------|--|----------|--
B|------13--|--|----------|--
G|------13--|--|------15--|--
D|--15------|--|--13--17--|--
A|--15------|--|--13------|--
E|----------|--|----------|--

http://www.guitartabcreator.com
Guitar Tab Creator is intended to store guitar tab created through the tool. It currently does not support in-line text editing. Any text you place in here will be lost. If you need to comment on your tab, please use the "Tab Notes" section located below.