Sound will begin in 5 seconds

Escala La M

01234567891011121314151617181920212223
E
B
G
D
A
E
B
0 1 2 3 4 5 6 7 8 9 10 11 12 13 14 15 16 17 18 19 20 21 22 23
Song Science #1: How Pros Use 6 Chords to Write Hit Songs
(/) Slide Up  (\) Slide Down  (h) Hammer On  (p) Pull Off  (b) Bend (r) Release (v) Vibrato

Stave 1:

E|-----------------------------------0--2--4--5------------------------------------------------
B|--------------------------0--2--3--------------------------------------------------7--9--10--
G|--------------------1--2--------------------------------------------------6--7--9------------
D|-----------0--2--4-----------------------------------------------6--7--9---------------------
A|--0--2--4-----------------------------------------------5--7--9------------------------------
E|-----------------------------------------------5--7--9---------------------------------------

Stave 2:

E|--------------------------------------2--4--5-------------------------------
B|-----------------------------2--3--5---------------------------------9--10--
G|-----------------------2--4-----------------------------------9--11---------
D|--------------2--4--6------------------------------9--11--12----------------
A|-----2--4--5-----------------------------------12---------------------------
E|--5-------------------------------------------------------------------------

Stave 3:

E|--
B|--
G|--
D|--
A|--
E|--

http://www.guitartabcreator.com
Guitar Tab Creator is intended to store guitar tab created through the tool. It currently does not support in-line text editing. Any text you place in here will be lost. If you need to comment on your tab, please use the "Tab Notes" section located below.