Sound will begin in 5 seconds

Escala de Fa M

01234567891011121314151617181920212223
E
B
G
D
A
E
B
0 1 2 3 4 5 6 7 8 9 10 11 12 13 14 15 16 17 18 19 20 21 22 23
Song Science #1: How Pros Use 6 Chords to Write Hit Songs
(/) Slide Up  (\) Slide Down  (h) Hammer On  (p) Pull Off  (b) Bend (r) Release (v) Vibrato

Stave 1:

E|-----------------------------------------0--1--------------------------
B|-----------------------------------1--3--------------------------5--6--
G|--------------------------0--2--3--------------------------5--7--------
D|-----------------0--2--3--------------------------5--7--8--------------
A|--------0--1--3--------------------------------8-----------------------
E|--1--3-----------------------------------------------------------------

Stave 2:

E|--------------------------------------------------------------------------------------------10--12--13--
B|--------------------------------------3--5--6-----------------------------------10--11--13--------------
G|-----------------------------2--3--5---------------------------------9--10--12--------------------------
D|--------------------2--3--5-------------------------------8--10--12-------------------------------------
A|-----------1--3--5-----------------------------8--10--12------------------------------------------------
E|--1--3--5-----------------------------------------------------------------------------------------------

Stave 3:

E|--
B|--
G|--
D|--
A|--
E|--

http://www.guitartabcreator.com
Guitar Tab Creator is intended to store guitar tab created through the tool. It currently does not support in-line text editing. Any text you place in here will be lost. If you need to comment on your tab, please use the "Tab Notes" section located below.