Sound will begin in 5 seconds

Versace On The Floor

Chords
01234567891011121314151617181920212223
E
B
G
D
A
E
B
0 1 2 3 4 5 6 7 8 9 10 11 12 13 14 15 16 17 18 19 20 21 22 23
(/) Slide Up  (\) Slide Down  (h) Hammer On  (p) Pull Off  (b) Bend (r) Release (v) Vibrato

Stave 1:

E|--2--0--------3/5--3--2--0--------------------0h2-----------2-----0--2--3--2--------0--
B|--3-----3------------------------------------------------3-----3--------------0--3-----
G|--2--------2----------------------2--2----------------0--------------------------------
D|--0------------------------------------------------------------------------------------
A|-------------------------------0-------------------------------------------------0-----
E|----------------------------0----------------------3-----------------3-----------------

Stave 2:

E|--5-----5--5--5--------5--5/7--------5--------------------------------------------0--0h2--
B|-----5----------------------------0-----7--------7--7--------8--5--------3----------------
G|----------------------------------------------------------------------------3-------------
D|----------------------------------------------------------5-------------------------------
A|-------------------------------------------------------0----------------------------------
E|--5--------5-------------------7-----------------------------------------------3----------

Stave 3:

E|-----0--2--3--5--------0--2--3--5--------------------------0--2p0--------------------
B|--3--------------3--3--------------3-----------------3-------------3--2--------3--2--
G|--------------------------------------------------2-----2-------------------2--------
D|-----------------------------------------------2-------------------------2-----------
A|--------------------------------------------0-------------------------0--------------
E|--------0--------0--------0--------0-------------------------------------------------

Stave 4:

E|-----0--2--3--5--5--2--5--------5-----7--------------------------------------------------------------------
B|--3--------------------------------7-----------0--0--0--0--------0--------1--3--------0-----0--------------
G|-----------------------------------------------0--0--0--0--2--2--------------------------2-----------0-----
D|--------------------------------------------------------------------------------------------------0-----0--
A|-----------------------------------------------------------------------------------------------------------
E|--------------3-----3-----------5--------------3--------------------------0-----------3--------3-----------

Stave 5:

E|--------0--3/5--3--2--0--------3/5--3--2--0-----0--2--------------
B|--3--3---------------------------------------3--------------3-----
G|---------------------------------------------------------------4--
D|------------------------------------------------------------------
A|------------------------------------------------------------0-----
E|-----------0----------1----------------3--------------------------

Stave 6:

E|-----0h2----------------------------------3/5-----5r---5--------2--2--5--5-----3--3r---2--2--0--0r---------0-----0h2-----------
B|-------------3--3-----------3----3----------------------------------------------------------------------3-------------0--3--3--
G|--4-------4-----------------2----2----------------------------------------------------------------------------2----------------
D|-------------------------0-----------------------------------------------------------------------------------------------------
A|-------------------------------------------------------------------------------------------------------------------------------
E|-----------------------------------------------3----------------------------0--------------------------------------------------

							http://www.guitartabcreator.com
Note:

r = slap

Guitar Tab Creator is intended to store guitar tab created through the tool. It currently does not support in-line text editing. Any text you place in here will be lost. If you need to comment on your tab, please use the "Tab Notes" section located below.