Snow Patrol - Chasing Cars

01234567891011121314151617181920212223
E
B
G
D
A
E
B
0 1 2 3 4 5 6 7 8 9 10 11 12 13 14 15 16 17 18 19 20 21 22 23
(/) Slide Up  (\) Slide Down  (h) Hammer On  (p) Pull Off  (b) Bend (r) Release (v) Vibrato

Stave 1 (Verse):

E|-----------------------------------------------------------------------------------------------------------
B|-----------------------------------------------------------------------------------------------------------
G|-----9-----9-----9-----9--------9-----9-----9-----9--------9-----9-----9-----9--------9-----9-----9-----9--
D|--7-----7-----7-----7--------6-----6-----6-----6-----------------------------------7-----7-----7-----7-----
A|--------------------------------------------------------5-----5-----5-----5--------------------------------
E|-----------------------------------------------------------------------------------------------------------

Stave 2 (Chorus):

E|--0-----4-----2-----0--
B|--2-----5-----2-----2--
G|--2-----4-----2-----2--
D|--2-----6-----0-----2--
A|--0-----7-----------0--
E|--------4--------------

							http://www.guitartabcreator.com
Chords

Tab Notes

https://tabs.ultimate-guitar.com/tab/snow-patrol/chasing-cars-chords-35…

Strumming Pattern, Chorus: 8 D strums with emphasis on 1, 4, 7

Verse: A E/G# D A
Chorus: A E/G# D7 A

Instruments
{"strings":[[[".","_","_","_","_","_","_","_","_","_","_","_","_","_","_","_","_","_","_","_","_","_","_","_","_","_","_","_","_","_","_","_","_","_","_"],[".","_","_","_","_","_","_","_","_","_","_","_","_","_","_","_","_","_","_","_","_","_","_","_","_","_","_","_","_","_","_","_","_","_","_"],[".",9,"_",9,"_",9,"_",9,"_","_",9,"_",9,"_",9,"_",9,"_","_",9,"_",9,"_",9,"_",9,"_","_",9,"_",9,"_",9,"_",9],[7,"_",7,"_",7,"_",7,"_","_",6,"_",6,"_",6,"_",6,"_","_","_","_","_","_","_","_","_","_","_",7,"_",7,"_",7,"_",7,"_"],[".","_","_","_","_","_","_","_","_","_","_","_","_","_","_","_","_","_",5,"_",5,"_",5,"_",5,"_","_","_","_","_","_","_","_","_","_"],[".","_","_","_","_","_","_","_","_","_","_","_","_","_","_","_","_","_","_","_","_","_","_","_","_","_","_","_","_","_","_","_","_","_","_"]],[[0,"_",4,"_",2,"_",0],[2,"_",5,"_",2,"_",2],[2,"_",4,"_",2,"_",2],[2,"_",6,"_",0,"_",2],[0,"_",7,"_","_","_",0],[".","_",4,"_","_","_","_"]]],"numberofstrings":6,"notes":["E","B","G","D","A","E","B"],"capo":0,"stringnotes":["E4","B3","G3","D3","A2","E2"],"comments":["Stave 1 (Verse):","Stave 2 (Chorus):"],"timing":[["W","W","W","W","W","W","W","W","W","W","W","W","W","W","W","W","W","W","W","W","W","W","W","W","W","W","W","W","W","W","W","W","W","W","W","W"],["W","W","W","W","W","W","W","W"]],"timingvisible":false,"tabcounter":7,"stave":1,"totalstaves":2,"instrument":"6guitar","selectedtuning":"6_standard","version":"13"}

Member for

4 years 7 months
Submitted by DHBui96 on Wed, 2022-05-18 14:40