Sound will begin in 5 seconds

Sign Of The Times

Chords
01234567891011121314151617181920212223
E
B
G
D
A
E
B
0 1 2 3 4 5 6 7 8 9 10 11 12 13 14 15 16 17 18 19 20 21 22 23
(/) Slide Up  (\) Slide Down  (h) Hammer On  (p) Pull Off  (b) Bend (r) Release (v) Vibrato

Stave 1 (Intro):

E|--------------------------------------------------------------
B|--1--1--1--1--------3--3--3--3--------------------------------
G|--2--2--2--2--------2--2--2--2--------0--0--0--0--0--0--0--0--
D|--------------------0--0--0--0--------2--2--2--2--2--2--2--2--
A|--------------------------------------3--3--3--3--3--3--3--3--
E|--1--1--1--1--------------------------------------------------

Stave 2 (Verse):

E|-----1--1--1--1-----1--1--1--1--3--------0-----------------0-----0-----------0----------------0-----0-----0----------------
B|-----------------------------------------------3--------3-----3-----3-----------3p1--1-----3-----3-----3-----3p1--1--------
G|---------------------------------------------------------------------------------------------------------------------------
D|--------------------------------------------0-----0--0-----0---------------------------------------------------------------
A|-----------------------------------------------------------------------------3-------3--3-----3-----------3-------3--3--3--
E|--1-----1--------1--------1------------------------------------------------------------------------------------------------

Stave 3 (Pre-Chorus, part 1):

E|---------------------------------------------------------------------------------------------------------------------------
B|-----1-----1-------------------------------------1-----1-------------------------1-----------------------1-----------------
G|--------2-----2p0--0--------0--2-----0--------------2-----2p0--0--------0--2--------2--------0--------------2--0-----------
D|----------------------3--3--------------------0-----------0-------3--3--------3--------------------------------------------
A|---------------------------------------------------------------------------------------------3--3--3--3--------3--3--3--3--
E|--1-----------1----------1--------1----------------------------------------------------------------------------------------

Stave 4 (Chorus):

E|-----1--1---1--1-----1--1--1---1--3--------0---------------------0------0-----------0--------------------0v-----0-----0---------------------------
B|-----1--1------------------1---------------------3--3------3-----3---3-----3-----------3p1--1v-----1---------3-----3-----3p1--1v-----1-----1v-----
G|----------------------------------------------------2---------2---------------------------------------0---------------------------------0---------
D|----------------------------------------------0---------0-----------------------------------------------------------------------------------------
A|------------------------------------------------------------------------------------3-----------3---------------------3-----------3---------------
E|--1---------------1-------------------------------------------------------------------------------------------------------------------------------

Stave 5 (Pre-Chorus, part 2):

E|-------------------------------------------------------------------------------------------------0------------0------------0------------0---
B|-----1-----1------------------------------------1-----1---------------------------1--------------1------1-----1---1--------1------1-----1---
G|--------2-----2p0v--0--------0--2--2v--------------2-----2p0v--0--------0--2--2v-----2--------0--0---------0--0------2--0--0---------0--0---
D|-----------------------3--3------------------0--------------------3--3----------------------------------------------------------------------
A|----------------------------------------------------------------------------------------------3------3------------------3------3------------
E|--1-----------------------------------------------------------------------------------------------------------------------------------------

Stave 6 (Bridge):

E|-----3/5--3-----1-----------------------3/5--3-----1-----------------------3h5--3-----------------------------------------------3--5--
B|----------------------1-----1----------------------------1-----1----------------------6--------------------------------3--5--6--------
G|--------------------------------------------------------------------------------------------5-----5--------3--2--3--5-----------------
D|-------------------------------------0----------0-----0-----0-------------------------------------------------------------------------
A|------------------------------------------------------------------------3----------3-----3-----3--------------------------------------
E|--1----------1-----1-----1------------------------------------------------------------------------------------------------------------

							http://www.guitartabcreator.com
Note:

v = slap & strum

Intro, Verse, Pre-Chorus = F Dm C

 

NOTE: Bridge ending chord (1st fret 2nd string) replace by 3/5 1st string for F and Dm
NOTE2: Bridge after 1st C chord strum DDUDDUDDU, after 2nd C chord DDUDDUDDUD

Guitar Tab Creator is intended to store guitar tab created through the tool. It currently does not support in-line text editing. Any text you place in here will be lost. If you need to comment on your tab, please use the "Tab Notes" section located below.