Sound will begin in 5 seconds

Say You Won't Let Go

Chords
01234567891011121314151617181920212223
E
B
G
D
A
E
B
0 1 2 3 4 5 6 7 8 9 10 11 12 13 14 15 16 17 18 19 20 21 22 23
(/) Slide Up  (\) Slide Down  (h) Hammer On  (p) Pull Off  (b) Bend (r) Release (v) Vibrato

Capo Fret 3

Stave 1 (Intro):

E|-------------------------------------------------------------------------
B|-----3--0--------------3--0--------------3--0--------------1--0-----1p0--
G|-----0--0-----0--------2--2-----2--------0--0-----0--------0--0----------
D|--------------------0-----0--0-------------------------------------------
A|--------------------------------------------------------3-----3--3-------
E|--3-----3--3--------------------------0-----0--0-------------------------

Stave 2 (Verse, part 1):

E|----------------------------------------------------------------------------------
B|-----3--3--0--0-------------3--3--0--0--------3--3--0--0-------------1--1p0--1p0--
G|-----0--0--------2p0--------0--0--------------0--0--------2p0--------0--0---------
D|----------------------------------------------------------------------------------
A|------------------------------------------------------------------3-----3---------
E|--3----------------------2-----------------0--------------------------------------

Stave 3 (Verse, part 2):

E|----------------------------------------------------------------------------------------------
B|-----3--3--0--0-------------3--3/5--0--0--------3--3--0--0-------------1--1p0--1p0-----1p0----
G|-----0--0--------2p0--------0-------------------0--0--------2p0--------0-----------------2p0--
D|----------------------------------------------------------------------------------------------
A|--------------------------------------------------------------------3-------------------------
E|--3----------------------2-------------2-----0------------------------------------------------

Stave 4 (Pre-Chorus):

E|-----------------------------------------------------------------------------------------------------------------------------------
B|-------------------------------------------------------------------------------0----------0--1------------------1-------0-----1p0--
G|---------------0-------0--2v--0---------------------0-------0--2v--0-------------------2--------2v--0-----------2-------2----------
D|-----0h2----------0h2---------------------0h2----------0h2-------------------------------------------------------------------------
A|-------------------------------------------------------------------------------------------------------------3----------3--3-------
E|--3---------------3--------------------2---------------2--------------------0----------------0-------------------------------------

Stave 5 (Chorus, part 1):

E|------------------------------------------------------------------------------------------
B|-----3--3v--0--0-------------3--3v--0--0-----------3--3v--0--0-------------1--1------1p0--
G|-----0------------2p0--------0---------------------0------------2p0--------0--0-----------
D|------------------------------------------------------------------------------------------
A|------------------------------------------------------------------------3---------3-------
E|---------------3----------2------------2--------0------------0----------------------------

Stave 6 (Chorus, part 2):

E|--------------------------------------------------------------------------------------------------2--3-------------------------------------2--3------------------------------------------------
B|-----3--3v--0--0-------------3--3/5v--0--0-----------3--3v--0--0-------------1--1------1p0-------------------3--0--3v-----------3---------------------3--0--------1v-----1-------1--------1p0--
G|-----0------------2p0--------0-----------------------0------------2p0--------0--0-----------------------------------------------0----------------------------------------0-------0-----0-------
D|-----------------------------------------------------------------------------------------------------------------------------------------------------------------------------------------------
A|--------------------------------------------------------------------------3---------3---------------------------------------------------------------------------------3----------3--3----------
E|--3------------3----------2--------------2--------0------------0----------------------------------3----------3---------------2-------------0---------------------------------------------------

Stave 7 (Bridge):

E|---------------------------------------------------------------------------------------------
B|--------------------------------------------------------------------------------1--1p0--1p0--
G|--------------------------------------------------------------------------------0--0---------
D|-----0--0-----------------------0--0-----------------0--0------------------------------------
A|-----------2--2--0--------------------2--2-----------------2--2--0-----------3---------------
E|--3-----------------3--------2--------------------0-----------------3------------------------

							http://www.guitartabcreator.com
Note:

r = slap
v = slap & strum

Intro: G D Em7 C
Verse & Chorus: G D/F Em7 C

 

 

Guitar Tab Creator is intended to store guitar tab created through the tool. It currently does not support in-line text editing. Any text you place in here will be lost. If you need to comment on your tab, please use the "Tab Notes" section located below.