Sound will begin in 5 seconds

Perfect

Chords
01234567891011121314151617181920212223
E
B
G
D
A
E
B
0 1 2 3 4 5 6 7 8 9 10 11 12 13 14 15 16 17 18 19 20 21 22 23
(/) Slide Up  (\) Slide Down  (h) Hammer On  (p) Pull Off  (b) Bend (r) Release (v) Vibrato

Capo Fret 2

Stave 1 (Verse, part 1):

E|----------------------------------------------------------------------------------------------------------------------------3--------2--
B|----------------0-----------------------0--------0--0----------------------------0--0--0------------------------0--------------3--------
G|----------0--0-----0-----------0-----------2--0--------0-----------0--------0h2-----------2p0--0--0--------0h2-----------2--------2-----
D|--0--0h2--------------0-----0-----------------------------2-----2---------------------------------------0----------------0--------------
A|---------------------------------------------------------------------------------------3-------------3----------------------------------
E|-------------3-----------3-----------------------0-----------0--------------------------------------------------------------------------

Stave 2 (Verse, part 2):

E|-------------------------------------------------------------------------------------------------------------------------3--------2--
B|--------0--------0--0--------0--------------0h3-------------------------0--0h1--1--0-------------------------------0--------3--------
G|-----0-----2--0--------0-----------------0-------2p0--0--0--------0--2----------------0--2p0--0--------0--------2-----2--------2-----
D|--------------------------0------------------------------------0------------------------------------0-----------------0--------------
A|---------------------------------------------------------------------------3---------------------3-----------------------------------
E|--3--------------3--------------------0----------0----------0------------------------------------------------------------------------

Stave 3 (Pre-Chorus):

E|-------------------0--------------------------------------------------------------------------------------------------------------------
B|--------0h3--3--3----------------0--0---0--0--------------0--0---0--0---------------0h1--1--0---0--------------0--0---1--0-----0--------
G|-----2----------------4\2---------------------2--0----------------------2--0-----------------------2------------------------0-----2--0--
D|--0---------------------------------------------------------------------------------------------------------0---------------2-----------
A|------------------------------------------------------------------------------------3-------3------3------------------------------------
E|---------------------------------3--3---3-----------------0--0---0--0------------------------------------------3--3---------------------

Stave 4 (Chorus, part 1):

E|---------------------------------------------------3--2--0----------------------
B|--------0h3--0h1p0-------------------------------------------3--------0--0------
G|-----2--------------2--0--------0--0---0----------------------------------------
D|--0---------------------------------------2-------------------------------------
A|---------------------------------------------------3-----3----------------------
E|--------------------------------0--0----------------------------------3--3------

Stave 5 (Chorus, part 2):

E|--------------------------0--------------------------------------------3--2--0----------------------------------------------------------------------------------------------------------------
B|--------0h3--3--3--3v--3-----------0--------0-----------------3------------------3--------0--0--------------0--3--1--0v--1--------0-----------0h1--0------------------------------------------
G|-----2--------------------------------2--0---------------2h4-------------------------------------------0h2---------------------------2----------------------0h2--2h4--2--------------2--0-----
D|--0------------------------------------------------------------------------------------------------------------0------------------------------------------------------------------0--------4--
A|-----------------------------------------------------------------------3-----3----------------------------------------------------------------3--------------------------------0--------------
E|-----------------------------------0--------0---------------------------------------------3--3------------------------------------0------------------------------3----------------------------

Stave 6 (Intermezzo 1):

E|-----------------------------------------------2--------------------------------------2--------2--
B|--0--------------3--------------0--------------3-----3--------1--------1--------------3-----3--3--
G|--0-----0--------2-----2--------0-----0-----------2-----------0-----0--0-----0-----------2-----2--
D|-----0--------------0--------------2-----------0-----------------2--------2-----------0--------0--
A|--------------------------------------------------------------3--------3--------------------------
E|--3--------------2--------------0-----------------------------------------------------------------

Stave 7 (Intermezzo 2):

E|-----------------------------------------------2--------------------------------------2--------2--------------3--
B|--0--------------3--------------0--------------3-----3--------1--------1--------------3-----3--3-----3--------3--
G|--0-----0--------2-----2--------0-----0-----------2-----------0-----0--0-----0-----------2--------2-----------0--
D|-----0--------------0--------------2-----------0-----------------2--------2-----------0--------0--------------0--
A|--------------------------------------------------------------3--------3--------------------------------------2--
E|--3--------------2--------------0-----------------------------------------------------------------------------3--

							http://www.guitartabcreator.com
Note:

v = slap & strum

Verse = G Em C D
Pre-Chorus = G Em C G D G Em C D

Chorus = Em C G D (4x) G
Intermezzo 1 = G D/F# Em D C (2x) D (2x)

Intermezzo 2 = G D/F# Em D C (2x) D (2x) G 

Guitar Tab Creator is intended to store guitar tab created through the tool. It currently does not support in-line text editing. Any text you place in here will be lost. If you need to comment on your tab, please use the "Tab Notes" section located below.