Sound will begin in 5 seconds

More Than Words

Chords
01234567891011121314151617181920212223
E
B
G
D
A
E
B
0 1 2 3 4 5 6 7 8 9 10 11 12 13 14 15 16 17 18 19 20 21 22 23
(/) Slide Up  (\) Slide Down  (h) Hammer On  (p) Pull Off  (b) Bend (r) Release (v) Vibrato

Stave 1 (Verse, part 1):

E|-----3-------3----------3-------3--3----------0-------3--0----------0-------2-----3-------
B|-----3----3--3-------3--3-------3--3-------1--1-------1--1-------1--1-------3-----3----3--
G|-----0----0--0-------0--0-------0--0-------0--0-------0--0-------0--0----------2-------0--
D|----------------------------------------------------------------------------0-------------
A|----------2----------3-------3--3--3-------0-------0--0--0-------3------------------------
E|--3------------------------------------------------------------------------------------3--

Stave 2:

E|--0--0----0--0-------0--0-------3--0----------2----2--2-------3--3-----2--0--
B|--0--0----0--0-------1--1-------0--0----------1----1--1-------3--3-----3--3--
G|--0--0----0--0-------0--0-------0--0----------2----2--2-------0--0-----2--2--
D|----------------------------------------------0----0-------------------------
A|----------2----------0-------0-------------0---------------------------------
E|--0-----------------------------------------------------------3--3-----2--2--

Stave 3:

E|--0--0----0--0-------0--0-------3--0----------2----2--2-------1--1----1--1-------0--0-------0--0-------3--3-------3--3-------3--3-------3--3-------3--3--3--3-----------0--------2--
B|--0--0----0--0-------1--1-------0--0----------1----1--1-------0--0----0--0-------1--1-------1--1-------4--4-------4--4-------3--3-------3--3-------3--3--3--3-----------1--------1--
G|--0--0----0--0-------0--0-------0--0----------2----2--2-------0--0----0--0-------0--0-------0--0-------5--5-------5--5-------0--0-------0--0-------0--0--0--0-----------0--------2--
D|----------------------------------------------0----0-----------------------------------------------------------------------------------------------------2--------------2--------0--
A|----------2----------0-------0-------------0--------------------------2----------1-------1--1--1-------3-------3--3--3-------3-------3--3--2----------2-----2--------0--0-----------
E|--0-----------------------------------------------------------3------------------------------------------------------------------------------------0--------------------------------

							http://www.guitartabcreator.com
Note:

r = slap

Verse 1 = G Cadd9 Am7 C D Dsus4

NOTE: verse 1 replace first note with last note if played second time 

Guitar Tab Creator is intended to store guitar tab created through the tool. It currently does not support in-line text editing. Any text you place in here will be lost. If you need to comment on your tab, please use the "Tab Notes" section located below.