Sound will begin in 5 seconds

Love Yourself

Chords
01234567891011121314151617181920212223
E
B
G
D
A
E
B
0 1 2 3 4 5 6 7 8 9 10 11 12 13 14 15 16 17 18 19 20 21 22 23
(/) Slide Up  (\) Slide Down  (h) Hammer On  (p) Pull Off  (b) Bend (r) Release (v) Vibrato

Capo Fret 4

Stave 1 (Intro):

E|--0--0-----------------------------1--1-------0--0---------------
B|-------------3--3-------1--1-----------------------------3--3----
G|-----------------------------------------------------------------
D|-----------------------------------0-----------------------------
A|--3----------2----------0---------------------3----------2-------
E|-----------------------------------------------------------------

Stave 2 (Verse):

E|-------0--0-----------------0---------------------------0--1--1--0--------------------------------------
B|--1h3-----------------3--3-----------3p1--1--1-------3--------------3--------1--3--3/5\3-----------3----
G|---------------------------------------------------------------------------------------------------0----
D|-----------------------------------------------------------0--------------------------------------------
A|-------3-----------------2----------------0----------------------------------3------------------2-------
E|--------------------------------------------------------------------------------------------------------

Stave 3 (Pre-Chorus):

E|------------0--3--0--------3--3--3p1--1--1p0--0----------------0--------0--------------0--------------0--
B|-------1h3---------------------------------------3p1--1--1--3-----1--3-----------1--3-----1--------3-----
G|--0h2----------------------------------------------------------------------------------------------------
D|---------------------------------------------------------------------0-----------------------------------
A|------------3----------------------------0---------------0-----------------------3-----------------2-----
E|---------------------------------------------------------------------------------------------------------

Stave 4 (Chorus, part 1):

E|---------------------------------------------------------------------
B|--1--1--1--3/5--5\3--1-----------1h3--3--3p1--1--1-----------1----1--
G|-------------------------------------------------------------0----0--
D|---------------------------------------------------------------------
A|----------------0-----------------------------------------3-------3--
E|------------------------1--------------------------------------------

Stave 5 (Chorus, part 2):

E|-------------------------------------------------0-------------------
B|--1--1--1--3/5--5\3--1-----------1h3--3--3p1--1--------------1----1--
G|-------------------------------------------------------------0----0--
D|---------------------------------------------------------------------
A|----------------0-----------------------------------------3-------3--
E|------------------------1--------------------------------------------

Stave 6 (Chorus, part 3):

E|--------3--1--0-----------0--0--------0--1--0-----------------1/3--3-----------3--3--3--3--1--1--0-----
B|-----1-----------3--1--1--------1--3-----------3--3--------1-------------------1--1--1--------------3--
G|-------------------------------------------------------------------------------------------------------
D|-------------------------------------------------------------------------------------------------------
A|--3--------------0--------------------3----------------------------0-----------------------------------
E|-----------------------------1--------------------3-------------------1-----------------3--3--3--3--3--

Stave 7 (Chorus, part 4):

E|-------------------------------0--0----------------------0--3--0----------------------------------------
B|--1--1--3/5--5----5\3--3----1----------3--------1--1--3-----------------1--3--1--1--------------1----1--
G|---------------------------------------------------------------------------------------------0-------0--
D|--------------------------------------------------------------------------------------------------------
A|-------------3-----------------0--0----------------------3--------------------------------3----------3--
E|-----------------------3---------------1-----------------------------------3----------------------------

							http://www.guitartabcreator.com
Note:

r = slap

Intro = C G/B Am Dm C G/B
Verse = Am G/B Am Dm C G/B
Pre-Chorus, Chorus 1, 2 = Am C 
Chorus 3 = C
Chorus 4 = C G Am F C G C

 

Guitar Tab Creator is intended to store guitar tab created through the tool. It currently does not support in-line text editing. Any text you place in here will be lost. If you need to comment on your tab, please use the "Tab Notes" section located below.