Jessie J - Flashlight

01234567891011121314151617181920212223
E
B
G
D
A
E
B
0 1 2 3 4 5 6 7 8 9 10 11 12 13 14 15 16 17 18 19 20 21 22 23
(/) Slide Up  (\) Slide Down  (h) Hammer On  (p) Pull Off  (b) Bend (r) Release (v) Vibrato

Capo Fret 5

Stave 1 (Verse):

E|--------------------------------------------------------0-----------1-----0--------------0-----------------
B|--1-----0-----1-----3--------1-----0-----1-----3--------------1--------------------3-----------3-----1-----
G|-----0-----0-----0-----0--------0-----0-----0-----0--------0-----0-----0-----0--------0-----0-----0-----0--
D|-----------------------------------------------------------------------------------3-----------------------
A|--3-----------------------------------------------------3--------------------------------------------------
E|-----------------------------3-----------------------------------------------------------------------------

Stave 2 (Chorus, Bridge, Outro):

E|--0-----3-----0-----1--
B|--1-----0-----1-----1--
G|--0-----0-----2-----2--
D|--2-----0-----2-----3--
A|--3-----2-----0-----3--
E|--------3-----------1--

							http://www.guitartabcreator.com
Chords

Tab Notes

https://tabs.ultimate-guitar.com/tab/jessie-j/flashlight-chords-1731803

Strumming Pattern, Chorus, Part 1: D strums with emphasis on 1, 3, 5, 7
Strumming Pattern, Bridge / Chorus, Part 2 / Outro: single D strums

Verse: C G C F
Chorus, Bridge: C G Am F

Instruments
{"strings":[[[".","_","_","_","_","_","_","_","_","_","_","_","_","_","_","_","_","_",0,"_","_","_",1,"_",0,"_","_","_","_",0,"_","_","_","_","_"],[1,"_",0,"_",1,"_",3,"_","_",1,"_",0,"_",1,"_",3,"_","_","_","_",1,"_","_","_","_","_","_",3,"_","_","_",3,"_",1,"_"],[".",0,"_",0,"_",0,"_",0,"_","_",0,"_",0,"_",0,"_",0,"_","_",0,"_",0,"_",0,"_",0,"_","_",0,"_",0,"_",0,"_",0],[".","_","_","_","_","_","_","_","_","_","_","_","_","_","_","_","_","_","_","_","_","_","_","_","_","_","_",3,"_","_","_","_","_","_","_"],[3,"_","_","_","_","_","_","_","_","_","_","_","_","_","_","_","_","_",3,"_","_","_","_","_","_","_","_","_","_","_","_","_","_","_","_"],[".","_","_","_","_","_","_","_","_",3,"_","_","_","_","_","_","_","_","_","_","_","_","_","_","_","_","_","_","_","_","_","_","_","_","_"]],[[0,"_",3,"_",0,"_",1],[1,"_",0,"_",1,"_",1],[0,"_",0,"_",2,"_",2],[2,"_",0,"_",2,"_",3],[3,"_",2,"_",0,"_",3],[".","_",3,"_","_","_",1]]],"numberofstrings":6,"notes":["E","B","G","D","A","E","B"],"capo":"5","stringnotes":["E4","B3","G3","D3","A2","E2"],"comments":["Stave 1 (Verse):","Stave 2 (Chorus, Bridge, Outro):"],"timing":[["W","W","W","W","W","W","W","W","W","W","W","W","W","W","W","W","W","W","W","W","W","W","W","W","W","W","W","W","W","W","W","W","W","W","W","W"],["W","W","W","W","W","W","W","W"]],"timingvisible":false,"tabcounter":7,"stave":1,"totalstaves":2,"instrument":"6guitar","selectedtuning":"6_standard","version":"13"}

Member for

4 years 7 months
Submitted by DHBui96 on Wed, 2022-05-18 14:53