Sound will begin in 5 seconds

Faded

Chords
01234567891011121314151617181920212223
E
B
G
D
A
E
B
0 1 2 3 4 5 6 7 8 9 10 11 12 13 14 15 16 17 18 19 20 21 22 23
(/) Slide Up  (\) Slide Down  (h) Hammer On  (p) Pull Off  (b) Bend (r) Release (v) Vibrato

Capo Fret 6

Stave 1 (Intro):

E|--------------------0--------5-----5-----5-----3--------0-----0-----0-----0-----------------------------------
B|--1-----1-----1-----------------------------------------------------------------------0-----0-----0-----------
G|-----2-----2-----1-----------------------------------------0-----0-----0-----0-----------------------------2--
D|--------------------------------------------------------------2-----------2--------------0-----0-----0--------
A|--0-----------0-----------------3-----3-----3-----------3-----------3-----------------------2-----------------
E|-----------------------------1-----1-----1--------------------------------------------3-----------3-----------

Stave 2 (Verse, part 1):

E|--------------------------------0--------------0-------------------------------------------------------------
B|-----1--1-----1-----1--3--------------1--1-----------------------1--------1--1/3--0--------------1--0-----1--
G|-----------2-----2-----------------2--------0-----------------0----------------------0-----------------2-----
D|-----------------------------------------------------------2----------------------------0--------------------
A|--0-----------------------------------------------------3-------------------------3--------------------------
E|--------------------------------1-----------1-------------------------------------------------------3--------

Stave 3 (Verse, part 2a):

E|--------------------------------0-----------3--0----------------------------------------------
B|-----1--1-----1-----1--3--------------1--1-----------------------1--------1--1/3--0--------0--
G|-----------2-----2-----------------2--------------------------0-------------------------0-----
D|-----------------------------------------------------------2-------------------------0--------
A|--0-----------------------------------------------------3-------------------------------------
E|--------------------------------1-----------1-------------------------------------3-----------

Stave 4 (Chorus, part 1):

E|--0--0--0--0--------------------------------------------0--0--0--------0-----------------------------------------
B|-----------------1-----------1-----------------1-----------------------------1-----------1-----------------0-----
G|--------------2-----2-----2-----2-----------2-----2-----------------------0-----0-----0-----0-----------0-----0--
D|-----------------------------------------------------------------------------------------------------------------
A|-----------0-----------0-----------------------------------------------3-----------3-----------------------------
E|-----------------------------------------1-----------1-----1-----------------------------------------3-----------

Stave 5 (Chorus, part 2):

E|--0--0--0--0-------------------0-----------------0--0--0--0------------------------------
B|-----------------1--1h3--3--3-----3--0--0-----------------------1--1--1--1/3--0--0--0h1--
G|--------------2----------------------------------------------0---------------------------
D|-----------------------------------------------------------------------------------------
A|-----------0----------------------------------------------3------------------------------
E|----------------------------------1-------------------------------------------3----------

Stave 6 (Chorus, part 3):

E|--0--0--0--0----------------------------------------------------3---3--------0------------------3---3--0--------0-----0------
B|-----------------1v-----------1v--1----------1v--------------1--0------------------1v-----------1---------------------1---3--
G|--------------2------2-----2---------0h2--0------0------------------------------0------0-----0---------------------0---------
D|-----------------------------------------------------------------------------------------------------------------------------
A|-----------0------------0----------------------------------------------------3------------3----------------------------------
E|-------------------------------------1--------------------1-----------------------------------------------------3------------

Stave 7 (Chorus, part 4):

E|--0--0--0--0-------------------------------1-------------------------3--------0--3--0v--3--0v--3--0-----1---------------------1--0--
B|-----------------1v-----------1v--1-----------------1v-----------1v----------------------------------3--------------3--3v--3--------
G|--------------2------2-----2---------------------2------2-----2---------------------------------------------------------------------
D|----------------------------------------------3------------3------------------------------------------------------------------------
A|-----------0------------------------------------------------------------------3-----------------------------------------------------
E|-----------------------------------------------------------------------------------------------------------------3------------------

Stave 8 (Chorus, part 5):

E|-----------------------------------------------1--0--------------------------------------------------------
B|--------1v-----------1v-----------------1v-----------------------1v-----------1v-----------------1v--------
G|-----2------2-----2------2-----------2------2-----------------2------2-----2------2-----------0------0-----
D|-----------------------------------------------------------------------------------------------------------
A|--0------------0------------------3------------------------3------------3----------------------------------
E|-------------------------------------------------------------------------------------------3------------3--

Stave 9 (Verse, part 2b):

E|-----3--3-----3--3-----3--3----------3--3-----3--3--------
B|-----------1--------1--------1--1/8--------1--------1--3--
G|----------------------------------------------------------
D|----------------------------------------------------------
A|--0-------------------------------------------------------
E|----------------------------------------------------------

							http://www.guitartabcreator.com
Note:

v = slap & strum

Intro, verse, chorus = Am C G
Chorus 4 = Am F C G7
Chorus 5 = Am F C G

Guitar Tab Creator is intended to store guitar tab created through the tool. It currently does not support in-line text editing. Any text you place in here will be lost. If you need to comment on your tab, please use the "Tab Notes" section located below.