Bruno Mars - Grenade

01234567891011121314151617181920212223
E
B
G
D
A
E
B
0 1 2 3 4 5 6 7 8 9 10 11 12 13 14 15 16 17 18 19 20 21 22 23
(/) Slide Up  (\) Slide Down  (h) Hammer On  (p) Pull Off  (b) Bend (r) Release (v) Vibrato

Stave 1 (Intro, Verse, Outro):

E|--1--------1--------1--------0--------0--------0--------0--
B|-----2--------2--------2--------1--------1--------1-----2--
G|--------3--------3-----------------2--------2-----------0--
D|--0-----------------------------------------------------2--
A|-----------------------------0--------------------------0--
E|-----------------------------------------------------------

Stave 2 (Pre-Chorus):

E|--1--------1--------1--------0--------0--------0--------1--------1--------1--------1--------1--------1--------0--
B|-----2--------2--------2--------1--------1--------1--------2--------2--------2--------3--------3--------3-----2--
G|--------3--------3-----------------2--------2-----------------3--------3-----------------3--------3-----------2--
D|--0-----------------------------------------------------------------------------------------------------------2--
A|-----------------------------0--------------------------0--------------------------1--------------------------0--
E|-----------------------------------------------------------------------------------------------------------------

Stave 3 (Chorus, Part 1):

E|--1-----1-----1-----0--
B|--3-----3-----1-----1--
G|--2-----3-----2-----0--
D|--0-----3-----3-----2--
A|--------1-----3-----3--
E|--------------1--------

Stave 4 (Chorus, Part 2):

E|--1-----0-----1-----0-----1-----0-----1-----0--
B|--3-----1-----1-----2-----3-----1-----3-----2--
G|--3-----0-----2-----2-----2-----0-----3-----2--
D|--3-----2-----3-----2-----0-----2-----3-----2--
A|--1-----3-----3-----0-----------3-----1-----0--
E|--------------1--------------------------------

Stave 5 (Bridge):

E|--3-----1-----3-----0-----1-----2-----0--
B|--3-----3-----3-----2-----3-----4-----2--
G|--3-----2-----3-----2-----2-----4-----2--
D|--5-----0-----5-----2-----0-----4-----2--
A|--5-----------5-----0-----------2-----0--
E|--3-----------3--------------------------

							http://www.guitartabcreator.com
Chords

Tab Notes

https://tabs.ultimate-guitar.com/tab/bruno-mars/grenade-chords-993953

Strumming Pattern, Chorus / Bridge: D D D D with emphasis on 1, 3

Intro, Outro: Dm Am
Verse: Dm Am (Part 2: A7)
Pre-Chorus: Dm Am Dm Bb A
Chorus, Part 1: Dm Bb F C
Chorus, Part 2: Bb C F, A Dm C Bb, A
Bridge: Gm Dm Gm A, Dm Bb A

Instruments
{"strings":[[[1,"_","_",1,"_","_",1,"_","_",0,"_","_",0,"_","_",0,"_","_",0],[".",2,"_","_",2,"_","_",2,"_","_",1,"_","_",1,"_","_",1,"_",2],[".","_",3,"_","_",3,"_","_","_","_","_",2,"_","_",2,"_","_","_",0],[0,"_","_","_","_","_","_","_","_","_","_","_","_","_","_","_","_","_",2],[".","_","_","_","_","_","_","_","_",0,"_","_","_","_","_","_","_","_",0],[".","_","_","_","_","_","_","_","_","_","_","_","_","_","_","_","_","_","_"]],[[1,"_","_",1,"_","_",1,"_","_",0,"_","_",0,"_","_",0,"_","_",1,"_","_",1,"_","_",1,"_","_",1,"_","_",1,"_","_",1,"_","_",0],[".",2,"_","_",2,"_","_",2,"_","_",1,"_","_",1,"_","_",1,"_","_",2,"_","_",2,"_","_",2,"_","_",3,"_","_",3,"_","_",3,"_",2],[".","_",3,"_","_",3,"_","_","_","_","_",2,"_","_",2,"_","_","_","_","_",3,"_","_",3,"_","_","_","_","_",3,"_","_",3,"_","_","_",2],[0,"_","_","_","_","_","_","_","_","_","_","_","_","_","_","_","_","_","_","_","_","_","_","_","_","_","_","_","_","_","_","_","_","_","_","_",2],[".","_","_","_","_","_","_","_","_",0,"_","_","_","_","_","_","_","_",0,"_","_","_","_","_","_","_","_",1,"_","_","_","_","_","_","_","_",0],[".","_","_","_","_","_","_","_","_","_","_","_","_","_","_","_","_","_","_","_","_","_","_","_","_","_","_","_","_","_","_","_","_","_","_","_","_"]],[[1,"_",1,"_",1,"_",0],[3,"_",3,"_",1,"_",1],[2,"_",3,"_",2,"_",0],[0,"_",3,"_",3,"_",2],[".","_",1,"_",3,"_",3],[".","_","_","_",1,"_","_"]],[[1,"_",0,"_",1,"_",0,"_",1,"_",0,"_",1,"_",0],[3,"_",1,"_",1,"_",2,"_",3,"_",1,"_",3,"_",2],[3,"_",0,"_",2,"_",2,"_",2,"_",0,"_",3,"_",2],[3,"_",2,"_",3,"_",2,"_",0,"_",2,"_",3,"_",2],[1,"_",3,"_",3,"_",0,"_","_","_",3,"_",1,"_",0],["_","_","_","_",1,"_","_","_","_","_","_","_","_","_","_"]],[[3,"_",1,"_",3,"_",0,"_",1,"_",2,"_",0],[3,"_",3,"_",3,"_",2,"_",3,"_",4,"_",2],[3,"_",2,"_",3,"_",2,"_",2,"_",4,"_",2],[5,"_",0,"_",5,"_",2,"_",0,"_",4,"_",2],[5,"_","_","_",5,"_",0,"_","_","_",2,"_",0],[3,"_","_","_",3,"_","_","_","_","_","_","_","_"]]],"numberofstrings":6,"notes":["E","B","G","D","A","E","B"],"capo":0,"stringnotes":["E4","B3","G3","D3","A2","E2"],"comments":["Stave 1 (Intro, Verse, Outro):","Stave 2 (Pre-Chorus):","Stave 3 (Chorus, Part 1):","Stave 4 (Chorus, Part 2):","Stave 5 (Bridge):"],"timing":[["W","W","W","W","W","W","W","W","W","W","W","W","W","W","W","W","W","W","W","W"],["W","W","W","W","W","W","W","W","W","W","W","W","W","W","W","W","W","W","W","W","W","W","W","W","W","W","W","W","W","W","W","W","W","W","W","W","W","W"],["W","W","W","W","W","W","W","W"],["W","W","W","W","W","W","W","W","W","W","W","W","W","W","W","W","W","W"],["W","W","W","W","W","W","W","W","W","W","W","W","W","W"]],"timingvisible":false,"tabcounter":13,"stave":4,"totalstaves":5,"instrument":"6guitar","selectedtuning":"6_standard","version":"13"}

Member for

4 years 7 months
Submitted by DHBui96 on Wed, 2022-05-18 15:03