Sound will begin in 5 seconds

Steady As She Goes (Bass)

01234567891011121314151617181920212223
E
B
G
D
A
E
B
0 1 2 3 4 5 6 7 8 9 10 11 12 13 14 15 16 17 18 19 20 21 22 23
Song Science #1: How Pros Use 6 Chords to Write Hit Songs
(/) Slide Up  (\) Slide Down  (h) Hammer On  (p) Pull Off  (b) Bend (r) Release (v) Vibrato

Stave 1:

E|--------------------------------
B|--------------------------------
G|--------------------------------
D|--------------------------------
A|--2----2-------2--0----0--------
E|----------2---------------0--2--

Stave 2:

E|-----------------------------------------
B|-----------------------------------------
G|-----------------------------------------
D|-----------------------------------------
A|--2----2-------2--0----0-----------0--2--
E|----------2---------------0--2--4--------

Stave 3:

E|-----------------------------------------
B|-----------------------------------------
G|-----------------------------------------
D|--------------------------4--2--0--------
A|--2----2-------2--0----0-----------4--2--
E|----------2------------------------------

Stave 4:

E|---------------------------------------
B|---------------------------------------
G|---------------------------------------
D|---------------------------------------
A|--2--2h4-------------------------------
E|----------2--2--2/5--5--5--0--0--0--0--

Stave 5:

E|--------------------------------------------------------------------------------------------------------------------------------------------------------
B|--------------------------------------------------------------------------------------------------------------------------------------------------------
G|--------------------------------------------------------------------------------------------------------------------------------------------------------
D|--------5--5--5-----5--6--7--7--7-----7--8--9--9--9--9--9--9--9--9--9--7h9--9--9--9--9--7---------5--5--5-----5--6--7--7--7-----7--8--------------------
A|-----------------5-----------------7-------------------------------------------------------10--9-----------5-----------------7--------7--7--7--7--7--7--
E|--2--3--------------------------------------------------------------------------------------------------------------------------------------------------

Stave 6:

E|----------------------
B|----------------------
G|--9--------9----------
D|-----9--------9-------
A|--------7--------7\2--
E|----------------------

Stave 7:

E|----------------------------------------
B|----------------------------------------
G|----------------------------------------
D|--------------0/9--9--9--9--9--9--9--9--
A|--2--------2----------------------------
E|----------------------------------------

http://www.guitartabcreator.com
Guitar Tab Creator is intended to store guitar tab created through the tool. It currently does not support in-line text editing. Any text you place in here will be lost. If you need to comment on your tab, please use the "Tab Notes" section located below.