Sound will begin in 5 seconds

umbrella

01234567891011121314151617181920212223
E
B
G
D
A
E
B
0 1 2 3 4 5 6 7 8 9 10 11 12 13 14 15 16 17 18 19 20 21 22 23
Song Science #1: How Pros Use 6 Chords to Write Hit Songs
(/) Slide Up  (\) Slide Down  (h) Hammer On  (p) Pull Off  (b) Bend (r) Release (v) Vibrato

Stave 1:

E|--7--6--4-----
B|--9--7--5-----
G|--9--8--6--3--
D|--9--8--6--4--
A|--7--6--4--4--
E|--------------

Stave 2:

E|------------------------11------------------------11--
B|-----------11------------------------11---------------
G|--------8------------8------------8------------8------
D|-----9------------9------------9------------9---------
A|--0------------0------------0------------0------------
E|------------------------------------------------------

Stave 3:

E|-----------7-----------------------7--------------
B|-----------------------9-----------------------9--
G|--------9-----------9-----------9-----------9-----
D|-----9-----------9-----------9-----------9--------
A|--7-----------7-----------7-----------7-----------
E|--------------------------------------------------

Stave 4:

E|-----------6-----------------------------------4-----0--------------14--
B|-----------------------7-----------4--------------5--0-----0--------14--
G|--------8-----------8-----------4-----------6--------3--------3-----14--
D|-----8-----------8-----------6-----------6-----------4-----------4------
A|--6-----------6-----------------------4--------------4------------------
E|--------------------------4--------------------------0--0---------------

Stave 5:

E|----------
B|--11--10--
G|--11--10--
D|--11--10--
A|--9---8---
E|----------

http://www.guitartabcreator.com
Guitar Tab Creator is intended to store guitar tab created through the tool. It currently does not support in-line text editing. Any text you place in here will be lost. If you need to comment on your tab, please use the "Tab Notes" section located below.