Sound will begin in 5 seconds

R U Mine

01234567891011121314151617181920212223
E
B
G
D
A
E
B
0 1 2 3 4 5 6 7 8 9 10 11 12 13 14 15 16 17 18 19 20 21 22 23
Song Science #1: How Pros Use 6 Chords to Write Hit Songs
(/) Slide Up  (\) Slide Down  (h) Hammer On  (p) Pull Off  (b) Bend (r) Release (v) Vibrato

Stave 1:

E|---------------------------------------------------
B|---------------------------------------------------
G|---------------------------------------------------
D|---------------------------------------------------
A|---------------------2h4--2h4----5--5--5--4--2/14--
E|--2v------2--2--2----------------------------------

Stave 2:

E|------------------------------------------------------
B|------------------------------------------------------
G|---------------------2--------------------------------
D|----------------2h4-----4--2--------------------------
A|-----------2h4----------------5--5--5--4--2--2--2--0--
E|--2--2--2---------------------------------------------

Stave 3:

E|-----------------------------------------------------------
B|-----------------------------------------------------------
G|---------------------2--4p2--------------------------------
D|----------------2h4----------4p2---------------------------
A|-----------2h4--------------------5--5--5--4--2--4p2--4p2--
E|--2--2--2--------------------------------------------------

Stave 4:

E|---------------------------------------------------------------
B|---------------------------------------------------------------
G|---------------------2-----------------------------------------
D|----------------2h4-----4--2-----------------------------------
A|-----------2h4----------------5--5--5--4--2--2--2--0-----------
E|--2--2--2---------------------------------------------2--2--2--

Stave 5:

E|--------------------------------------
B|--------------------------------------
G|--7--7--7--6--4--4--4-----------------
D|--7--7--7--6--4--4--4-----------------
A|--5--5--5--4--2--2--2--0--------------
E|--------------------------2--2--2--2--

Stave 6:

E|-------------------------------------------------------
B|-------------------------------------------------------
G|-------------------------------------------------------
D|-------------------------------------------------------
A|-------7h9-------7h9-----------------------------------
E|--7h9-------7h9-------7h9--10--10--9----7--5--2--2--2--

Stave 7:

E|-----------------------------------------------------------------------------------------------
B|-----------------------------------------------------------------------------------------------
G|-----------------------------------------------------------------------------------------------
D|-----------------------------------------------------------------------------------------------
A|-------7h9-------7h9---------------------------------------------------------------------------
E|--7h9-------7h9-------7h9--10--10--10--9----12--9--7--7--7--7--7--7--7--9--10--10--10--10--10--

Stave 8:

E|---------------------------------------------------------------------------------------------------------------
B|---------------------------------------------------------------------------------------------------------------
G|---------------------------------------------------------------------------------------------------------------
D|---------------------------------------------------------------------------------------------------------------
A|---------------------------------------------------------------------------------------------------------------
E|--10--10\2--2--2--2--2--2--2--4--5--5--5--5--5--5--5/7--7--7--7--7--7--7--9--10--9--9--7--7--5--5--0--2--2--2--

Stave 9:

E|------------------------------------------------------------------------------
B|----------------------7h10--10b12--10\5b7--5----------------------------------
G|-----------------6h9----------------------------------------------------------
D|------------7h9---------------------------------------------------------------
A|-------7h9-----------------------------------------------0h2p0h2p0h2p0h2p0----
E|--7h9-----------------------------------------2--2--2-------------------------

Stave 10:

E|--------------------------------------
B|--------------------------------------
G|--------------------------------------
D|--------------------------------------
A|--5--5--5--4--2--0--2--4--0-----------
E|-----------------------------2--2--2--

Stave 11:

E|------------------------------------------------------------------
B|------------------------------------------------------------------
G|------------------------------------------------------------------
D|----------------2h4--4--4--2h4--4--4------------------------------
A|-----------2h4------------------------5--5--5--4--2--2--4p2--4p2--
E|--2--2--2---------------------------------------------------------

Stave 12:

E|------------------------------------------------------------
B|------------------------------------------------------------
G|------------------------------------------------------------
D|------------------------------------------------------------
A|-------7h9-------7h9-------5--5--5--4--2--2--2--0-----------
E|--7h9-------7h9-------7h9--------------------------2--2--2--

http://www.guitartabcreator.com
Guitar Tab Creator is intended to store guitar tab created through the tool. It currently does not support in-line text editing. Any text you place in here will be lost. If you need to comment on your tab, please use the "Tab Notes" section located below.