Sound will begin in 5 seconds

rasses låt tråjpat te ejypt forts

01234567891011121314151617181920212223
E
B
G
D
A
E
B
0 1 2 3 4 5 6 7 8 9 10 11 12 13 14 15 16 17 18 19 20 21 22 23
Song Science #1: How Pros Use 6 Chords to Write Hit Songs
(/) Slide Up  (\) Slide Down  (h) Hammer On  (p) Pull Off  (b) Bend (r) Release (v) Vibrato

Stave 1:

E|---------------------------------------------------
B|----------15-14----------17----------16------------
G|----15-12-------15-16-------17-15-12----16-11-14---
D|-14-------------------17---------------------------
A|---------------------------------------------------
E|---------------------------------------------------

Stave 2:

E|------------------------------
B|---------15----16---12--------
G|-12---15---------------12--15-
D|------------------------------
A|------------------------------
E|------------------------------

Stave 3:

E|---------------------------------------------------------------------------------
B|---------------------------------------------------------------------------------
G|-9-9-9-9-9-9-9-9-12-12-12-12-12-12-12-12-8-8-8-8-8-8-8-8-11-11-11-11-11-11-11-11-
D|---------------------------------------------------------------------------------
A|---------------------------------------------------------------------------------
E|---------------------------------------------------------------------------------

Stave 4:

E|-----------------------------------------------------------------------------------------
B|-----------------------------------------12-12-12-12-12-12-12-12-11-11-11-11-11-11-11-11-
G|-9-9-9-9-9-9-9-9-12-12-12-12-12-12-12-12-------------------------------------------------
D|-----------------------------------------------------------------------------------------
A|-----------------------------------------------------------------------------------------
E|-----------------------------------------------------------------------------------------

Stave 5:

E|---------------------------------------------------------------------------------
B|---------------------------------------------------------------------------------
G|-9-9-9-9-9-9-9-9-9-9-9-9-12-12-12-12-8-8-8-8-8-8-8-8-11-11-11-11-----------------
D|---------------------------------------------------------------------------------
A|---------------------------------------------------------------------------------
E|---------------------------------------------------------------------------------

Stave 6:

E|---------------------------------------------------------------------------------
B|-------------------------------------12-12-12-12-11-11-11-11---------------------
G|-9-9-9-9-9-9-9-9-9-9-9-9-12-12-12-12-------------------------12-12-12-12-8-8-8-8-
D|---------------------------------------------------------------------------------
A|---------------------------------------------------------------------------------
E|---------------------------------------------------------------------------------

Stave 7:

E|-------------------------------------------------------------------------------------------------
B|-------------------------------------------------15-15-15-15-15-15-15-15-15-15-15-15-15-15-15-15-
G|-12-12-12-12-12-12-12-12-12-12-12-12-15-15-15-15-------------------------------------------------
D|-------------------------------------------------------------------------------------------------
A|-------------------------------------------------------------------------------------------------
E|-------------------------------------------------------------------------------------------------

Stave 8:

E|-------------------------------------------------------------------------------------------------
B|-16-16-16-16-16-16-16-16-11-11-11-11-11-11-11-11-12-12-12-12-12-12-12-12-------------------------
G|-------------------------------------------------------------------------11-11-11-11-11-11-11-11-
D|-------------------------------------------------------------------------------------------------
A|-------------------------------------------------------------------------------------------------
E|-------------------------------------------------------------------------------------------------

Stave 9:

E|-------------------------------------------------------------------------------------------------
B|-16-16-16-16-16-16-16-16-11-11-11-11-11-11-11-11-12-12-12-12-12-12-12-12-------------------------
G|-------------------------------------------------------------------------12-12-12-12-12-12-12-12-
D|-------------------------------------------------------------------------------------------------
A|-------------------------------------------------------------------------------------------------
E|-------------------------------------------------------------------------------------------------

Stave 10:

E|-------13------------------
B|----15----------13---------
G|-14-------13-14-------12---
D|-------------------14------
A|---------------------------
E|---------------------------

Stave 11:

E|-------13----------------------
B|----15-------------------------
G|-14-------13-14-17-16-14-12-14-
D|-------------------------------
A|-------------------------------
E|-------------------------------

http://www.guitartabcreator.com
Guitar Tab Creator is intended to store guitar tab created through the tool. It currently does not support in-line text editing. Any text you place in here will be lost. If you need to comment on your tab, please use the "Tab Notes" section located below.