Sound will begin in 5 seconds

Rasses låt tråjpat te ejypt

01234567891011121314151617181920212223
E
B
G
D
A
E
B
0 1 2 3 4 5 6 7 8 9 10 11 12 13 14 15 16 17 18 19 20 21 22 23
Song Science #1: How Pros Use 6 Chords to Write Hit Songs
(/) Slide Up  (\) Slide Down  (h) Hammer On  (p) Pull Off  (b) Bend (r) Release (v) Vibrato

Stave 1:

E|---------------------------------------------------------
B|---------------------------------------------------------
G|-8-8-8-8-9-9-9-9-8-8-8-8-9-9-9-9-12-12-12-12-12-12-12-12-
D|---------------------------------------------------------
A|---------------------------------------------------------
E|---------------------------------------------------------

Stave 2:

E|-----------------------------------------------------------------
B|-----------------------------------------------------------------
G|-8-8-8-8-8-8-8-8-9-9-9-9-8-8-8-8-9-9-9-9-12-12-12-12-12-12-12-12-
D|-----------------------------------------------------------------
A|-----------------------------------------------------------------
E|-----------------------------------------------------------------

Stave 3:

E|-------------------------------------------------------------------------
B|-12-12-12-12-11-11-11-11-------------------------------------------------
G|-------------------------7-7-7-7-7-7-7-7---------------------------------
D|-------------------------------------------------------------------------
A|-------------------------------------------------------------------------
E|-------------------------------------------------------------------------

Stave 4:

E|-----------------------------------------
B|-12-12-12-12-11-11-11-11-----------------
G|-------------------------7-7-7-7-7-7-7-7-
D|-----------------------------------------
A|-----------------------------------------
E|-----------------------------------------

Stave 5:

E|-------------------------10-10-10-10-10-10-10-10-
B|-12-12-12-12-11-11-11-11-------------------------
G|-------------------------------------------------
D|-------------------------------------------------
A|-------------------------------------------------
E|-------------------------------------------------

Stave 6:

E|-----------------------------------------------------------------------------------------------
B|-----------------------------------------------------------------------------------------------
G|-9-9-9-9-9-9-9-9-12-12-12-12-11-11-11-11-8-8-8-8-12-12-12-12-11-11-11-11-8-8-8-8---------------
D|-----------------------------------------------------------------------------------------------
A|-----------------------------------------------------------------------------------------------
E|-----------------------------------------------------------------------------------------------

Stave 7:

E|-------------------------------------------------------------------------------------
B|-------------------------------------------------------------12-12-12-12-12-12-12-12-
G|-9-9-9-9-9-9-9-9-12-12-12-12-11-11-11-11-8-8-8-8-12-12-12-12-------------------------
D|-------------------------------------------------------------------------------------
A|-------------------------------------------------------------------------------------
E|-------------------------------------------------------------------------------------

Stave 8:

E|---------------------------------------------------------------------------------
B|-----------------------------------------12-12-12-12-11-11-11-11-----------------
G|-9-9-9-9-9-9-9-9-12-12-12-12-11-11-11-11-------------------------8-8-8-8-8-8-8-8-
D|---------------------------------------------------------------------------------
A|---------------------------------------------------------------------------------
E|---------------------------------------------------------------------------------

Stave 9:

E|-------------------------------------------------------------------------------------------------
B|-------------------------15-15-15-15-------------------------------------------------------------
G|-14-14-14-14-14-14-14-14-------------14-14-14-14-------------------------------------------------
D|-------------------------------------------------15-15-15-15-17-17-17-17-14-14-14-14-15-15-15-15-
A|-------------------------------------------------------------------------------------------------
E|-------------------------------------------------------------------------------------------------

Stave 10:

E|-------------------------------------------------------------------------------------
B|-------------------------15-15-15-15-------------17-17-17-17-16-16-16-16-12-12-12-12-
G|-14-14-14-14-14-14-14-14-------------14-14-14-14-------------------------------------
D|-------------------------------------------------------------------------------------
A|-------------------------------------------------------------------------------------
E|-------------------------------------------------------------------------------------

Stave 11:

E|-------------------------------------------------------------------------------------------------
B|-------------------------15-15-15-15-------------17-17-17-17-16-16-16-16-------------------------
G|-14-14-14-14-14-14-14-14-------------14-14-14-14-------------------------14-14-14-14-12-12-12-12-
D|-------------------------------------------------------------------------------------------------
A|-------------------------------------------------------------------------------------------------
E|-------------------------------------------------------------------------------------------------

Stave 12:

E|-------------------------------------------------------------------------------------------------
B|-------------------------15-15-15-15-15-15-15-15-11-11-11-11-11-11-11-11-------------------------
G|-14-14-14-14-14-14-14-14-------------------------------------------------12-12-12-12-12-12-12-12-
D|-------------------------------------------------------------------------------------------------
A|-------------------------------------------------------------------------------------------------
E|-------------------------------------------------------------------------------------------------

Stave 13:

E|-----------------------------------------------------------------------------------------
B|-----------------------------------------------------------------------------------------
G|-14-14-14-14-14-14-14-14-10-10-10-10-10-10-10-10-12-12-12-12-12-12-12-12-9-9-9-9-9-9-9-9-
D|-----------------------------------------------------------------------------------------
A|-----------------------------------------------------------------------------------------
E|-----------------------------------------------------------------------------------------

Stave 14:

E|-------------------------------------------------------------------------
B|-------------------------------------------------------------------------
G|-10-10-10-10-10-10-10-10-7-7-7-7-7-7-7-7-8-8-8-8-8-8-8-8-8-8-8-8-7-7-7-7-
D|-------------------------------------------------------------------------
A|-------------------------------------------------------------------------
E|-------------------------------------------------------------------------

Stave 15:

E|---------------------------------------------------------------------------------
B|---------------------------------------------------------------------------------
G|-8-8-8-8-8-8-8-8-9-9-8-8-8-8-9-9-9-9-12-12-12-12-11-11-11-11-7-7-7-7-10-10-10-10-
D|---------------------------------------------------------------------------------
A|---------------------------------------------------------------------------------
E|---------------------------------------------------------------------------------

Stave 16:

E|-----------------------------------------------------------------------------
B|-------------------------------------12-12-11-11-----------------------------
G|-8-8-8-8-8-8-8-8-9-9-8-8-8-8-9-9-9-9-------------12-12-11-11-8-8-9-9-8-8-7-7-
D|-----------------------------------------------------------------------------
A|-----------------------------------------------------------------------------
E|-----------------------------------------------------------------------------

http://www.guitartabcreator.com
Guitar Tab Creator is intended to store guitar tab created through the tool. It currently does not support in-line text editing. Any text you place in here will be lost. If you need to comment on your tab, please use the "Tab Notes" section located below.