Death Of A Black Rose- Moving On

Chords

01234567891011121314151617181920212223
E
B
G
D
A
E
B
0 1 2 3 4 5 6 7 8 9 10 11 12 13 14 15 16 17 18 19 20 21 22 23
(/) Slide Up  (\) Slide Down  (h) Hammer On  (p) Pull Off  (b) Bend (r) Release (v) Vibrato

E|--------------------------------------
B|--------------------------------------
G|-------------------5----------5-------
D|-7--7-7-7-2--3-3-3-5-5--5-5-5-5-5-3-5-
A|-7--7-7-7-2--3-3-3-3-5--5-5-5-3-5-3-5-
E|-5--5-5-5-0--1-1-1---3--3-3-3-3-3-1-3-



E|-----------------------------3-5-3-----------
B|-5-2---2--5-2---2-5--6-5-2-5-------3-5-3-----
G|-----5--------5--------------------------5-2-
D|---------------------------------------------
A|---------------------------------------------
E|---------------------------------------------



E|--
B|--
G|--
D|--
A|--
E|--
							http://www.guitartabcreator.com
[[],[],[],[],[],[]]

Member for

8 years 1 month
Submitted by deathlywhispers on Thu, 2012-06-14 17:09