conscious unaware

Chords

01234567891011121314151617181920212223
E
B
G
D
A
E
B
0 1 2 3 4 5 6 7 8 9 10 11 12 13 14 15 16 17 18 19 20 21 22 23
(/) Slide Up  (\) Slide Down  (h) Hammer On  (p) Pull Off  (b) Bend (r) Release (v) Vibrato

E|-x-x-x-x-x-x-x-x-x-x-x-x-x-x-x-x-x-x-x-x-x-x-3p02-2-2-2h3-3-3p2-2-2
B|-3-3-3-3-3-3-3-3-3-3-3-3-3-3-3-3-3-3-3-x-x-x-0-00-0-0-0---0-0-0-0-0
G|-0-0-0-0-0-0-0-0-0-0-0-0-0-0-0-0-0-0-0-x-x-x-0-00-0-0-0---0-0-0-0-0  X2-(intro) X3-(verse) 
D|-x-x-x-x-x-x-x-x-x-x-x-x-x-x-x-x-x-x-x-2-2-2-2-22-2-2-2---2-2-2-2-2
A|-3-3-3-3-3-3-2-2-2-2-2-2-2h3-3-3-2-2-2-2-2-2-2-22-2-2-2---2-2-2-2-2
E|-x-x-x-x-x-x-x-x-x-x-x-x-x-x-x-x-x-x-x-0-0-0-0-00-0-0-0---0-0-0-0-0


E|-0-----0----
B|-0-----0----
G|-7---7-5-5-- (Before chorus)
D|-9--9--7--7-
A|-9-9---7---7
E|-x-----x----		


E|-3-3-3-2-2-2-2h3-3-3-2-3-2-0-0-00-0-0-0-0-0-0-00
B|-0-0-0-0-0-0-0-0-0-0-0-0-0-0-0-00-0-0-0-0-0-0-00
G|-0-0-0-0-0-0-0-0-0-0-0-0-0-0-0-00-0-0-0-0-0-0-00  (Chours X3)
D|-0-0-0-0-0-0-0-0-0-0-0-0-0-2-2-22-2-2-5-5-5-5-55
A|-x-x-x-x-x-x-x-x-x-x-x-x-x-2-2-22-2-2-3-3-3-3-33
E|-3-3-3-3-3-3-3-3-3-3-3-3-3-0-0-00-0-0-x-x-x-x-xx	

E|-x-xxxx-x-xxxx-x-xxxx-x-xxxx-x-xxxx-x-xxxx-xx-3p02-2-222-
B|-3-3333-5-5555-7-7777-8-8888-3-3333-5-5555-00-0-00-0-000-
G|-0-0000-0-0000-0-0000-0-0000-0-0000-0-0000-00-0-00-0-000- X2 (except end of two goes)
D|-x-xxxx-x-xxxx-x-xxxx-x-xxxx-x-xxxx-x-xxxx-22-2-22-2-222-
A|-3-3333-5-5555-7-7777-7-7777-3-3333-5-5555-22-2-22-2-222-
E|-x-xxxx-x-xxxx-x-xxxx-x-xxxx-x-xxxx-x-xxxx-00-0-00-0-000-

END OF TWO:
E|-xx-3p02-2-2-2h3-3p2h33
B|-00-0-00-0-0-0-0-0-0-00
G|-00-0-00-0-0-0-0-0-0-00
D|-22-2-22-2-2-2-2-2-2-22
A|-22-2-22-2-2-2-2-2-2-22
E|-00-0-00-0-0-0-0-0-0-00
[[],[],[],[],[],[]]

Member for

8 years 8 months
Submitted by deaddream on Thu, 2011-09-22 20:23