Sound will begin in 5 seconds

First Tab

01234567891011121314151617181920212223
E
B
G
D
A
E
B
0 1 2 3 4 5 6 7 8 9 10 11 12 13 14 15 16 17 18 19 20 21 22 23
Song Science #1: How Pros Use 6 Chords to Write Hit Songs
(/) Slide Up  (\) Slide Down  (h) Hammer On  (p) Pull Off  (b) Bend (r) Release (v) Vibrato

Stave 1:

E|-----------------------------------------------------------------------
B|-----------------------------------------------------------------------
G|-----------------------------------------------------------------------
D|--5-----------5-----------------5--------------------5-----------5-----
A|--5--------5-----------3-----5--------------3-----5-----3-----5--------
E|--3--2--3--------0--3-----3--------0--2--3-----7-----------3--------7--

Stave 2:

E|-----------------------------------------------------------------------
B|-----------------------------------------------------------------------
G|-----------------------------------------------------------------------
D|--4-----------4-----------------4--------------------4-----------4-----
A|--4--------4-----------2-----4--------------2-----4-----2-----4--------
E|--2--1--2--------0--2-----2--------0--1--2-----6-----------2--------6--

Stave 3:

E|----------------------------------------------------
B|----------------------------------------------------
G|----------------------------------------------------
D|----------------------------------------------------
A|-------------------10---------10b11---------11--10--
E|--------10------9------9--10---------10--9----------

Stave 4:

E|------------3--7---7--------10--0--
B|---------------10--10-------10--0--
G|--1------------9---9--------11--0--
D|--2------------10--10-------12--2--
A|--2---------2--0---0--------12--2--
E|-------3\0--3--x---x---7h9--10--0--

http://www.guitartabcreator.com
Guitar Tab Creator is intended to store guitar tab created through the tool. It currently does not support in-line text editing. Any text you place in here will be lost. If you need to comment on your tab, please use the "Tab Notes" section located below.