The Long Way Home

Chords

01234567891011121314151617181920212223
E
B
G
D
A
E
B
0 1 2 3 4 5 6 7 8 9 10 11 12 13 14 15 16 17 18 19 20 21 22 23
(/) Slide Up  (\) Slide Down  (h) Hammer On  (p) Pull Off  (b) Bend (r) Release (v) Vibrato

E|-----0-0-----0-0-----0-0-----0-0-----0-
B|-0h1-1-----1-1-----1-0-----0-1-----1-0-
G|-----2---2---0---0---0---0---2---2---0-
D|-----2-------2-------2-------2-------2-
A|-----0-------3-------2-------0-------2-
E|---------------------------------------



E|-----0------0-0-----0-------3-3-----------------
B|-1---1-1----1-1-0---0---3---3-------0-0-1---0---
G|---2-2---0--0-0---0-0-----0-0---0---------0---2-
D|-----2------2-2-----2-------2-------------------
A|-----0------3-3-----2-------3-------------------
E|--------------------0---------------------------



E|-0---------------------------------------------------0--0-0-0-3---3-3-3-0-
B|-0-----------0-----------0-----------0-----------0---2--2-2-2-3---3-3-3-0-
G|-0---------0---0-------0---0-------0---0-------0---0-2--2-2-2-2---2-2-2-0-
D|-0--2----2-------2---2-------2---3-------3---2-------2--2-2-2-0---0-0-0-2-
A|-0--2--2-----------2-----------3-----------2----------------------------2-
E|--------------------------------------------------------------------------



E|-0-0-0-0-0-0--0-0-0-0-0--3-3-3-3-3-0-0--0-----0-
B|-0-0-0-0-0-0--0-0-0-0-0--3-3-3-3-3-0-0------0-0-
G|-0-0-0-1-1-1--0-0-0-0-0--0-0-0-0-0-0-0----0---0-
D|-2-2-2-2-2-2--0-0-0-2-2--0-0-0-0-0-2-0----------
A|-2-2-2-2-2-2--2-2-2-2-2--2-2-2-2-2-2-2----------
E|--------------2-2-2------3-3-3-3-3---2----------



E|----------------------------------------------------------------------0----0----------------------
B|--1--------1-------1--------1-------1--------1---------0--0--1-----0--0----------0----------------
G|-----2--------2----------------0-------2--------2---------------0-----0-------0-----------1-------
D|--------2-------------2-------------------3---------------------------2----------------------0h2--
A|-------------------------3--------------------------------------------2----------------2----------
E|------------------------------------------------------------------------------------0-------------



E|--0--0--------0--
B|--0--------0--0--
G|--1-----0-----0--
D|--2-----------2--
A|--2-----------2--
E|--0--------------
							http://www.guitartabcreator.com
Tab Notes

I havent made up the interlude or the solo yet. . .

[["0",".",".",".","."],["2",".",".",".","2"],["2",".",".",".","2"],["1",".","0",".","0"],["0",".",".","0","0"],["0","0",".",".","0"]]

Member for

8 years 8 months
Submitted by David on Fri, 2011-10-21 21:54