Sound will begin in 5 seconds

Spanish/Blues

01234567891011121314151617181920212223
E
B
G
D
A
E
B
0 1 2 3 4 5 6 7 8 9 10 11 12 13 14 15 16 17 18 19 20 21 22 23
Song Science #1: How Pros Use 6 Chords to Write Hit Songs
(/) Slide Up  (\) Slide Down  (h) Hammer On  (p) Pull Off  (b) Bend (r) Release (v) Vibrato

Stave 1:

E|--------5--8p5-----------------------------------------------------------------------------
B|--5--8----------5--------------------------------------------------------------------------
G|-------------------7--5-------5--7b8b7--5------------------------------------5--8--7--5b6--
D|-------------------------5h7---------------7--5--------------------------------------------
A|-------------------------------------------------6b7--5---------------5h6h7----------------
E|---------------------------------------------------------8--5--5h7h8-----------------------

Stave 2:

E|---------------------------------------------------------------------------------------------
B|-----------------------------------------------------------------------------17--20----------
G|-----------------------------------------------------------------14------17----------20--19--
D|--7--------------------------------------------12b13b12--13--14------17----------------------
A|-----5------------------7b8b7----------10--12------------------------------------------------
E|--------8b9b8--5--5--8---------11--10--------------------------------------------------------

Stave 3:

E|-----------------------------------------------6--9--8--6--6-------------------------------
B|-----------------------------------------6--9-----------------9--7--6----------------------
G|--17--14---------------------------6--8--------------------------------8b9b8--6------------
D|----------17--14--14--10--6--7--8------------------------------------------------6h8p6--8--
A|-------------------------------------------------------------------------------------------
E|-------------------------------------------------------------------------------------------

Stave 4:

E|------------------------------------------------------------------------7--8--10--7--
B|--------------------------------------------------------------7--8--10---------------
G|--------------------------------------------------------7--9-------------------------
D|----------------------------------------------7--9--10-------------------------------
A|--6--7--9--10--------------------------7h8h9-----------------------------------------
E|---------------7--8--10--10--7--7--10------------------------------------------------

http://www.guitartabcreator.com
Guitar Tab Creator is intended to store guitar tab created through the tool. It currently does not support in-line text editing. Any text you place in here will be lost. If you need to comment on your tab, please use the "Tab Notes" section located below.